Você está na página 1de 2

Pose (acstico MTV)

Obs.: Essa msica cantada por Humberto Gessinger e sua filha Clara
Gessinger.
Tablatura do solo de incio:
e|------6---6---4-----4---2-----2------2-----|
B|--------7-------5---------4----4-----------|
G|-5/6--------------4---------4-----4--------|
D|-------------------------------------------|
A|-------------------------------------------|
E|-------------------------------------------|
e|------6---6---4-----4---------------9---4-|
B|--------7-------5------7-----7--7---10--5-|
G|-5/6--------------4------8----------9---4-|2x a Sequencia Inteira
D|---------------------------9--------------|
A|------------------------------------------|
E|------------------------------------------|
( F# E B

A E )2x

F# E B

F#

Vamos passear depois do tiroteio


F#

Vamos danar num cemitrio de automveis


F#

Colher as flores que nascerem no asfalto


C#

F# E B

Vamos todo mundo... tudo que se possa imaginar


F# E B A E
F#

Vamos duvidar de tudo que certo


F#

Vamos namorar luz do plo petroqumico


F#

Voltar pra casa num navio fantasma


C#

F# E B

Vamos todo mundo... ningum pode faltar


F# E B A E
F#

Se faltar calor, a gente esquenta


F#

Se ficar pequeno, a gente aumenta


F#

E se no for possvel, a gente tenta


C#

Vamos velejar no mar de lama


D#m

C#

Se faltar o vento, a gente inventa


B

Vamos remar contra a corrente


D#m

C#

Desafinar do coro dos contentes


( F# E B
C#

F# E B )2x
B

Vamos velejar no mar de lama


D#m

C#

Se faltar o vento, a gente inventa


B

Vamos remar contra a corrente


D#m

C#

Desafinar do coro dos contentes


( F# E B

F# E B )2x A E F#