Você está na página 1de 2

Incio Catlicas Rosa de Saron Casino Boulevard

Rosa de Saron - Casino Boulevard

ocultar tablatura
Intro: A9

F#m

C#m

e|-----------------------------------|
B|------0--------0-------------------|
G|---0---0-0---0--0-0----0----0------|
D|----2-------2-2--2----4-4--4-4--4--|
A|--3--3--3--0---------2----2---2----|
E|--------------------0----3---------|

A9
F#m
C#m
E
Se ganhou suspire, Se perdeu aprenda.
A9
F#m
C#m
E
Porque hora de ser, No demore ou vai...
A9
F#m
C#m E
Vai perder sua aposta, Agora a hora
A9
F#m
C#m
E
F#
A9
Escolha bem suas cartas, O seu jogo j vai co...mear.

E
B9
C#m
O lance est no ar, s voc gritar bem alto, alto...
A9
Mas se prepare, Prepare.
E
Porque nada no mundo de graa,
B9
C#m
A9
Voc pode at ter medo, mas ande, caminhe, so no pare, No pare.

A9
F#m
C#m
E
Qual o seu limite? At onde aguenta?
A9
F#m
C#m
E
Se tudo aqui tem prazo, qual o seu?
A9
F#m
C#m
E
Pois tudo aqui tem um porque, A vida o casino e voc a fixa.
A9
F#m
C#m
E
F#
A9
Nunca permita que a sua, Felicidade dependa de algo que possa perder.

E
B9
C#m
O lance est no ar, s voc gritar bem alto, alto...
A9
Mas se prepare, Prepare.
E
Porque nada no mundo de graa,
B9
C#m
A9
Voc pode at ter medo, mas ande, caminhe, so no pare, No pare, Nuncaa

www.cifras.com.br/cifra/rosa-de-saron/casino-boulevard/

1/2

Solo: A9

F#m C#m E

ocultar tablatura
e|--------------------------------------------------------------------------------------------------------|
B|----------------7-7-7-7-9-9-9-9----------------------9-10-9---------------------------------------------|
G|6-6-6-6-9-9-9-9-----------------4-4-4-4-4/6-6~---6-9-------11/9-11-11/6--4/6----------4--4-6------------|
D|-----------------------------------------------------------------------------6/4-2-4/6------6/4-2---4~--|
A|-------------------------------------------------------------------------------------------------4-2----|
E|--------------------------------------------------------------------------------------------------------|
E|-------------------------------------------------------------------|
B|-----------------------------------------------16/17-16--------14~~|
G|------------------------------------11-11-11-11--------18/16-13----|
D|11-11-11-11-13-13-13-13-14-14-14-14--------------------------------|
A|-------------------------------------------------------------------|
E|-------------------------------------------------------------------|

A9 F#m
C#m
Todos querem uma fatia da sua glria,
E
A9
F#m
C#m
Todos todos querem apostar, sua

E
vida

A9 F#m C#m E
A9 F#m
C#m B9
Sua graa, sua culpa, sua calma, sua alma

E
B9
C#m
O lance est no ar, s voc gritar bem alto, alto...
A9
Mas se prepare, Prepare.
E
Porque nada no mundo de graa,
B9
C#m
A9
Voc pode at ter medo, mas ande, caminhe, so no pare,
E B9 C#m A9 F#m A9 F#m C#m E
Nada no mundo de graaaaa....

A9

F#m

C#m

www.cifras.com.br/cifra/rosa-de-saron/casino-boulevard/

F#

B9

2/2