Você está na página 1de 8

Cifra Club | CHITOZINHO & XOROR - Chitozinho & Xoror

incio

cifras e tabs

top msicas

aprenda

enviar cifra

notcias

letras

Pgina 1 de 8

frum

ARTISTAS A B C D E F G H I J K L M N O P Q R S T U V W X Y Z 0/9
Pgina Inicial C Chitozinho & Xoror Chitozinho & Xoror Cifra v2

Chitozinho & Xoror


Chitozinho & Xoror
Tom: D

Introd.: D A7 D A7 G F#m Em D

As tablaturas so da letra da msica, pus a letra embaixo da tablatura porque as


mais fcil saber
o que esto tocando.

e|0-0-0-0-0----1-1-1-1-1-1-1-1-0-3-3-1-1-0-0--------------------|
B|-----------3--------------------------------3-3-1-1-0-0-------|
G|---------------------------------------------------------2-2-0|
D|--------------------------------------------------------------|
A|--------------------------------------------------------------|
E|--------------------------------------------------------------|
D

A7
Eu no troco meu ranchinho
D

amarradinho de cip
A7
Por uma casa na cidade,
D
nem que seja bangal

Exibir acordes

http://www.cifraclub.com.br/chitaozinho-e-xororo/chitaozinho-xororo/zzzmg.html

30/12/2011

Cifra Club | CHITOZINHO & XOROR - Chitozinho & Xoror

Pgina 2 de 8

e|------------------------------0-0-0-0-0-----1-0----------------|
Texto

Colunas

B|--------------1-1-1-1-0------------------3-------3-1-3-1-0-----|
G|0-0-0-0-0-0-2------------2-0--------------------------------2-0|
D|---------------------------------------------------------------|

Alterar tom

A|---------------------------------------------------------------|

tom

E|---------------------------------------------------------------|
D7

tom

Eu moro l no deserto, sem


afinao

acordes na letra
esconder tabs
afinador

vizinho, eu vivo s
A7
S me alegra quando pia,

mais

rolagem

D
l pr'aqueles cafund

dicionrio
favoritar cifra
add a minhas cifras

e|-------------------------0-0-3-3-1-----1-1-0|
B|------------------------------------3-3-----|
G|-----0--0-----------------------------------|

fotos

D|2-2-------3-0-0-3-3-2-----------------------|

vdeos

A|--------------------------------------------|

baixe no celular

E|--------------------------------------------|
A7

imprimir
corrigir
salvar txt

o inhambu-xint e o xoror
A7

A74 A7 D

o inhambu-xint e o xoror

Enviar cifra para...


minha msica

e|0-0-0-0-0----1-1-1-1-1-1-1-1-0-3-3-1-1-0-0--------------------|
B|-----------3--------------------------------3-3-1-1-0-0-------|
G|---------------------------------------------------------2-2-0|
D|--------------------------------------------------------------|
A|--------------------------------------------------------------|
E|--------------------------------------------------------------|
A7
Quando rompe a madrugada,
D
canta o galo carij
A7
Pia triste a coruja, na cumeeira
D
do paiol

Exibir acordes

http://www.cifraclub.com.br/chitaozinho-e-xororo/chitaozinho-xororo/zzzmg.html

30/12/2011

Cifra Club | CHITOZINHO & XOROR - Chitozinho & Xoror

Pgina 3 de 8

e|------------------------------0-0-0-0-0-----1-0----------------|
B|--------------1-1-1-1-0------------------3-------3-1-3-1-0-----|
G|0-0-0-0-0-0-2------------2-0--------------------------------2-0|
D|---------------------------------------------------------------|
A|---------------------------------------------------------------|
E|---------------------------------------------------------------|
D7

Quando chega o entardecer,


D
pia triste o ja
A7
S me alegra quando pia,
D
l pr'aqueles cafund

e|-------------------------0-0-3-3-1-----1-1-0|
B|------------------------------------3-3-----|
G|-----0--0-----------------------------------|
D|2-2-------3-0-0-3-3-2-----------------------|
A|--------------------------------------------|
E|--------------------------------------------|
A7

o inhambu-xint e o xoror
A7

o inhambu-xint e o xoror
e|0-0-0-0-0----1-1-1-1-1-1-1-1-0-3-3-1-1-0-0--------------------|
B|-----------3--------------------------------3-3-1-1-0-0-------|
G|---------------------------------------------------------2-2-0|
D|--------------------------------------------------------------|
A|--------------------------------------------------------------|
E|--------------------------------------------------------------|
A7
No me dou com a terra roxa,
D
com a seca larga p
A7
Na baixada do areo eu sinto
D
um prazer maior

Exibir acordes

http://www.cifraclub.com.br/chitaozinho-e-xororo/chitaozinho-xororo/zzzmg.html

30/12/2011

Cifra Club | CHITOZINHO & XOROR - Chitozinho & Xoror

Pgina 4 de 8

e|------------------------------0-0-0-0-0-----1-0----------------|
B|--------------1-1-1-1-0------------------3-------3-1-3-1-0-----|
G|0-0-0-0-0-0-2------------2-0--------------------------------2-0|
D|---------------------------------------------------------------|
A|---------------------------------------------------------------|
E|---------------------------------------------------------------|
D7

Ver a rolinha no andar,


D
no areo faz caracol
A7
S me alegra quando pia,
D
l pr'aqueles cafund

e|-------------------------0-0-3-3-1-----1-1-0|
B|------------------------------------3-3-----|
G|-----0--0-----------------------------------|
D|2-2-------3-0-0-3-3-2-----------------------|
A|--------------------------------------------|
E|--------------------------------------------|
A7

o inhambu-xint e o xoror
A7

C D G

o inhambu-xint e o xoror
e|0-0-0-0-0----1-1-1-1-1-1-1-1-0-3-3-1-1-0-0--------------------|
B|-----------3--------------------------------3-3-1-1-0-0-------|
G|---------------------------------------------------------2-2-0|
D|--------------------------------------------------------------|
A|--------------------------------------------------------------|
E|--------------------------------------------------------------|
D7
Eu fao minhas caadas
G
antes de sair o sol
D7
Espingarda de cartucho,
G
patrona de tiracolo

Exibir acordes

http://www.cifraclub.com.br/chitaozinho-e-xororo/chitaozinho-xororo/zzzmg.html

30/12/2011

Cifra Club | CHITOZINHO & XOROR - Chitozinho & Xoror

Pgina 5 de 8

e|------------------------------0-0-0-0-0-----1-0----------------|
B|--------------1-1-1-1-0------------------3-------3-1-3-1-0-----|
G|0-0-0-0-0-0-2------------2-0--------------------------------2-0|
D|---------------------------------------------------------------|
A|---------------------------------------------------------------|
E|---------------------------------------------------------------|
G7

Tenho buzina e cachorro


G
pra fazer forrobod
D7
S me alegra quando pia,
G
l pr'aqueles cafund

e|-------------------------0-0-3-3-1-----1-1-0|
B|------------------------------------3-3-----|
G|-----0--0-----------------------------------|
D|2-2-------3-0-0-3-3-2-----------------------|
A|--------------------------------------------|
E|--------------------------------------------|
D7

o inhambu-xint e o xoror
D7

D7 Em A7 D

o inhambu-xint e o xoror
e|0-0-0-0-0----1-1-1-1-1-1-1-1-0-3-3-1-1-0-0--------------------|
B|-----------3--------------------------------3-3-1-1-0-0-------|
G|---------------------------------------------------------2-2-0|
D|--------------------------------------------------------------|
A|--------------------------------------------------------------|
E|--------------------------------------------------------------|
A7
Quando eu sei de uma notcia
D
que outro canta melhor
A7
Meu corao da um balano,
D
fica meio banzar

Exibir acordes

http://www.cifraclub.com.br/chitaozinho-e-xororo/chitaozinho-xororo/zzzmg.html

30/12/2011

Cifra Club | CHITOZINHO & XOROR - Chitozinho & Xoror

Pgina 6 de 8

e|------------------------------0-0-0-0-0-----1-0----------------|
B|--------------1-1-1-1-0------------------3-------3-1-3-1-0-----|
G|0-0-0-0-0-0-2------------2-0--------------------------------2-0|
D|---------------------------------------------------------------|
A|---------------------------------------------------------------|
E|---------------------------------------------------------------|
D7

Suspiro sai do meu peito,


D
que nem bala jevel
A7
S me alegra quando pia,
D
l pr'aqueles cafund

e|-------------------------0-0-3-3-1-----1-1-0|
B|------------------------------------3-3-----|
G|-----0--0-----------------------------------|
D|2-2-------3-0-0-3-3-2-----------------------|
A|--------------------------------------------|
E|--------------------------------------------|
A7

o inhambu-xint e o xoror
A7

A7 G F#m Em D

o inhambu-xint e o xoror

A7

A74

D7

G7

Exibir acordes

http://www.cifraclub.com.br/chitaozinho-e-xororo/chitaozinho-xororo/zzzmg.html

30/12/2011

Cifra Club | CHITOZINHO & XOROR - Chitozinho & Xoror

Pgina 7 de 8

Sertanejo Zez Di Camargo


Ganhe Miniatura do seu miniastro. Acesse e consulte regulamento.
www.friboi.com.br

Comentrios (0)

140
Voc precisa estar logado para comentar. Ainda no cadastrado? Cadastre-se
.

E-mail

Senha

Exibindo 0 de 0 comentrios

enviar comentrio

Mostrar mais comentrios

semana

ms

1. Someone Like You

geral

ver todos os comentrios

semana

ms

geral

1. Jorge e Mateus

Adele
102.170 exibies

2. Patience
Guns N' Roses

246.081 exibies

2. Legio Urbana

85.626 exibies

3. Balada Boa (Tche Tche Rere)


Gusttavo Lima

14

3. Paula Fernandes

65.149 exibies

4. Californication
Red Hot Chili Peppers

Michel Tel

4. Guns N' Roses

6
172.995 exibies

5. Gusttavo Lima

52.651 exibies

6. Cu Azul

1
180.227 exibies

61.431 exibies

5. Ai Se Eu Te Pego

1
208.445 exibies

2
169.683 exibies

6. Adele

Charlie Brown Jr.


45.542 exibies

7. Rolling In The Deep


Adele

162.239 exibies

7. Charlie Brown Jr.

42.911 exibies

8. Eu Quero S Voc
Jorge e Mateus

8. Victor e Leo

42.534 exibies

9. No Precisa
Paula Fernandes

2
128.796 exibies

9. Red Hot Chili Peppers

36.903 exibies

10. Que Pas Este

1
152.278 exibies

4
128.743 exibies

10. Luan Santana

Exibir acordes

http://www.cifraclub.com.br/chitaozinho-e-xororo/chitaozinho-xororo/zzzmg.html

30/12/2011

Cifra Club | CHITOZINHO & XOROR - Chitozinho & Xoror

Pgina 8 de 8

Legio Urbana
35.210 exibies

voltar

104.654 exibies

Cifra Club Letras.mus.br Palco MP3


Top 1000 cifras
RSS

Ouvir Msica Frum Audioware Guitar Battle


mais
voltar
Top 1000 artistas
RSS

Msica em Geral

Vdeo-aulas

Notcias

Guitarra

Professores

Cobertura de shows

Violo

Cursos Online

Entrevistas

Pedais & Pedaleiras

Tutoriais

Especiais

Amplificadores

Livros

Colunas

Contra-baixo

Dicionrio de acordes

Teclado

Afinador

Bateria

Patches/Pedaleiras

Forme sua Banda


mais

Canto
Gaita
OFF Topic
Veja outros fruns

Aviso Legal

Poltica de Privacidade

Anuncie

Cadastre-se

Fale conosco

ver en espaol

2011 Cifra Club o primeiro, maior e mais acessado do Brasil 274 mil msicas 4.2 milhes pessoas cadastradas

youtube

twitter

Exibir acordes

http://www.cifraclub.com.br/chitaozinho-e-xororo/chitaozinho-xororo/zzzmg.html

30/12/2011