Você está na página 1de 2

Vagalumes (part.

Ivo Mozart)
Pollo

Tom: B
Intro:
Parte 1
G#m
E
E|-7---7---6---4---7---7---6---4------------|
B|---4---4---4---4---5---5---5---4----------|
G|------------------------------------------|
D|------------------------------------------|
A|------------------------------------------|
E|------------------------------------------|
Parte 2
B5(9)
F#
G
E|-11----11----9----9-----------------------|
B|-----------------------11----11----11---11|
G|----11----11---11---11----11----11----9---|
D|------------------------------------------|
A|------------------------------------------|
E|------------------------------------------|
Parte 2
E|------------------------------------------|
B|------------------------------------------|
G|-9----------------------------------------|
D|------------------------------------------|
A|------------------------------------------|
E|------------------------------------------|

G#m
Eu sei o que eu fao nosso caminho eu trao
E
Casal fora da lei ocupando o mesmo espao
B5(9)
Se t contigo no ligo se sol no aparecer
F#
G
E que no faz sentido caminhar
Sem dar a mo pra voc
G#m
Teu sonho impossvel vai ser nossa
realidade
E
Sei que o mundo t terrvel mas no vai ser a
maldade que
B11
Vai me tirar de voc, eu fao voc ver
F#
G
Pra tu sorrir eu fao o mundo inteiro
saber que eu
Refro:
G#m
E
B5(9)
Vou caar mais de um milho de vagalumes por
a
F#
E pra te ver sorrir
G
eu posso colorir o cu de outra cor
G#m
E
Eu s quero amar voc
B5(9)
F#
E quando amanhecer eu quero acordar

Do seu lado
Primeira Parte com variao na letra:
Pgina 2 / 4

Refro:
G#m
E
B5(9)
Vou caar mais de um milho de vagalumes por
a
F#
E pra te ver sorrir
G
Eu posso colorir o cu de outra cor
G#m
E
Eu s quero amar voc
B5(9)
F#
E quando amanhecer eu quero acordar

Do seu lado
Pgina 1 / 4

Primeira parte:
G#m
Vou escrever mais de um milho de canes
Pra voc ouvir
E
Que meu amor teu, teu sorriso me faz sorrir
B5(9)
Vou de Marte at a Lua, c sabe j t na tua
F#
G
No cabe tanta saudade essa verdade nua e
crua

G#m
Pra ter o teu seu sorriso descubro o paraso
E
s eu ver sua boca que eu perco o juzo por
B11
Inteiro
Sentimento verdadeiro eu e voc
F#
Ao som de Janelle Mone
G
Vem, deixa acontecer
G#m
Me abraa que o tempo no passa quando c t
perto
E
D a mo e vem comigo que eu vejo como eu t
certo
B5(9)
Eu digo que te amo c pede algo impossvel
F#
G
Levanta da sua cama hoje o cu est incrvel
Refro:
G#m
E
B5(9)
Vou caar mais de um milho de vagalumes por
a
F#
E pra te ver sorrir

G
eu posso colorir o cu de outra cor

Vou caar mais de um milho de vagalumes por


a
E pra te ver sorrir

G#m
E
Eu s quero amar voc
B5(9)
F#
E quando amanhecer eu quero acordar

Pgina 3 / 4

Segunda Parte:
C#m
Fao dos teus braos um lugar mais seguro
D#m
Procurei paz em outro abrao no achei eu
juro
E
F#4

Saio do compasso, passo apuros que vier


G
Abro a janela pra que voc possa ver

Refro:

Eu posso colorir o cu de outra cor


Eu s quero amar voc
E quando amanhecer eu quero acordar
Do seu lado