Você está na página 1de 3

Trazendo a Arca - Tua Graa Me Basta

Tom: E
Intro: C#m B A B C#m
C#m B A B E
E

A9
B
Eu no preciso ser reconhecido por ningum
E
A9
A minha Glria fazer com que conheam a Ti
C#m7
B
A9
E/G# F#m
B
E que diminua eu pra que Tu cresas senhor mais e mais
E

A9
B
E como os serafins que encobrem o rosto ante a Ti
E
A9
Escondo o rosto para que vejam Tua face em mim
C#m7
B
A9
E/G# F#m
B
e que diminua eu pra que Tu cresas senhor mais e mais
E/G#
A9
E/G# F#m
No santo dos santos a fumaa me esconde
C#m7 B
A9
E/G# F#m
S teus olhos me veem
debaixo de Tuas asas meu abrigo
C#m7
B
A9
B
E
)
Meu lugar secreto s Tua graa me basta e Tua presena o meu prazer
E

A9
B
Eu no preciso ser reconhecido por ningum
E
A9
A minha Glria fazer com que conheam a Ti
C#m7
B
A9
E/G# F#m
B
E que diminua eu pra que Tu cresas senhor mais e mais
E

A9
B
E como os serafins que encobrem o rosto ante a Ti
E
A9
Escondo o rosto para que vejam Tua face em mim
C#m7
B
A9
E/G# F#m
B
e que diminua eu pra que Tu cresas senhor mais e mais
E/G#
A9
E/G# F#m
No santo dos santos a fumaa me esconde
C#m7 B
A9
E/G#
S teus olhos me veem
debaixo de Tuas asas meu abrigo
C#m7
B
A9
B
Meu lugar secreto s Tua graa me basta e Tua presena o
A9
E/G# F#m
No santo dos santos a fumaa me esconde
C#m7 B
A9
E/G#
S teus olhos me veem
debaixo de Tuas asas meu abrigo
C#m7
B
A9
B
Meu lugar secreto s Tua graa me basta e Tua presena o
Solo E E/G# A9 E/G# F#m C#m
B C#m E/G# A E F#m
B C#m E/G# A E F#m F#m B

B A E/G# F#m

F#m
E
meu prazer
F#m
meu prazer

(A9 E A9

E|---------------------------------------------------------------|
B|---------------------------------------------------------------|
G|--6/9-8--------------------------------------------------------|
D|---------9-9-11-9h11-9/11-9-6-6-7-6h7-7-9-11-------------------|
A|-------------------------------------------------------1411---|
E|---------------------------------------------------------------|

E|-------------------------------------------14/16-17-16b17----------------------|
B|--16b17b16-12-12-14-12h14-12/14-16-17------------------------------------------|
G|-------------------------------------------------------------------------------|
D|---------------------------------------------------------------9-11-6-7-2-4-4--|
A|---------------------------------------------------------------9-11-6-7-2-4-4--|
E|---------------------------------------------------------------7-9--4-5-0-2-2--|

E|----------------------------------------------------------|
B|----------------------------------------------------------|
G|----------9-11-11-11-9--------9---------------------------|
D|--9/11-------------------11-9----11-9---------------------|
A|------------------------------------------11-9------------|
E|-------------------------------------------------12-9-7---|

E|---------------------------12p11-12p11-----11------------------------------------|
B|-------------------17b19-----------------12-----12-------------------------------|
G|-----------------------------------------------------11-9-8-9-8---8--------------|
D|-9-11--6-7-2-4-4-----------------------------------------------------9--9-9/11
----|
A|-9-11--6-7-2-4-4-----------------------------------------------------------------|
E|-7-9---4-5-0-2-2-----------------------------------------------------------------|

A9
E/G# F#m
No santo dos santos a fumaa me esconde
C#m7 B
A9
E/G# F#m
S teus olhos me veem
debaixo de Tuas asas meu abrigo
C#m7
B
A9
B
E
)
Meu lugar secreto s Tua graa me basta e Tua presena o meu prazer
A
F#m
Tua presena, Tua presena o meu prazer
E
B
Tua presena, Tua presena o meu prazer (4x)

(A9 E B9

A9
E/G# F#m
No santo dos santos a fumaa me esconde
C#m7 B
A9
E/G# F#m
S teus olhos me veem
debaixo de Tuas asas meu abrigo
C#m7
B
A9
B
C#m
Meu lugar secreto s Tua graa me basta e Tua presena o meu prazer
B
A9
B
C#m B A B E
S Tua graa me basta e Tua presena o meu prazer
----------------- Acordes ----------------A = X 0 2 2 2 0
A9 = X 0 2 2 0 0
B = X 2 4 4 4 2
B9 = X 2 4 4 2 2
C#m = X 4 6 6 5 4
C#m7 = X 4 6 4 5 4
E = 0 2 2 1 0 0
E/G# = 4 X 2 4 5 X
F#m = 2 4 4 2 2 2