Você está na página 1de 3

Identidade Zero

Intro: Em

Em

É melhor não levar a mal

Mas eu pensava que era o tal,

Cinco anos no meu quarto

Escrevendo um jornal

Am

Eu não dançava rock'n roll

Em

Preferia ver o show

Eu boto inseticida quando eu dou um beijo,

Tenho a faca mas não tenho o queijo

Ela me deu um cinto de castidade

B B C# D D# Em

Eu colo chiclete nos bancos da cidade

G Em

Coitadinho de mim,

G Em

Coitadinho de mim,

G Em

Coitadinho de mim

C B C C# D

(Igual)

É melhor não levar a mal

Mas eu pensava que era o tal

No café eu boto sal,


Com as gostosas me dou mal

Não dançava rock'n roll

Preferia ver o show

Eu boto inseticida quando eu dou um beijo,

Tenho a faca mas não tenho o queijo

Ela me deu um cinto de castidade

Eu colo chiclete nos bancos da cidade

G Em

Coitadinho de mim,

G Em

Coitadinho de mim,

G Em

Coitadinho de mim

C B C C# D

Se quiser saber o resto da história

Em

Zero!

Riffs:

Em:

|---------|---------
|---------|---------

|---------|---------

|---------|---------

|-----0-2-|---------

|-0-3-----|-0-2-3-4-

Am:

|---------|-----------------

|---------|-----------------

|---------|-----------------

|-----0-2-|-----0---2-0-----

|-0-3-----|-0-3---3-----3-2-

|---------|-----------------