Você está na página 1de 4

BUCKETHEAD

The
Landing Beacon

_A tribute to Michael Jackson_

tuning: Standard

Intro. played with tapped harmonics {}, tap octave higher then written

A. | repeat this part 7x |


----------{3}p2----------- ----------{3}p2-----{2}-----{2}h3----------|
------{3}-------{3}~------ ------{3}-------{3}-----{3}----------------|
--{0}--------------------- --{0}--------------------------------------|
-------------------------- -------------------------------------------|
-------------------------- -------------------------------------------|
-------------------------- -------------------------------------------|

B. Repeat this 2x
-7p5h7~---5p3h5~--- --10p7h10~--10p7h10~--8p7h8~--7p5h7~--5p3h5~--3p2h3-|
-8--------7-------- --8---------7---------5-------3-------1-------0-----|
-0--------0-------- --0---------0---------0-------0-------0-------0-----|
------------------- ----------------------------------------------------|
------------------- ----------------------------------------------------|
------------------- ----------------------------------------------------|

Go back to B.

C.
| Repeat this 1x |
-----10---10--------10---10--------8---8--------7---7------|
---8----8----8----7----7----7----5---5---5----3---3---3----|
-0--------------0--------------0------------0--------------|
-----------------------------------------------------------|
-----------------------------------------------------------|
-----------------------------------------------------------|

--------5---5--------5---3----2~~----|
------1---1---1----1---1---1---------|
---0-------------0-------------------|
-------------------------------------|
-------------------------------------|
-------------------------------------|

D. at 1.56

| Repeat 1x | | Repeat 1x |
--0h2p0------3------2------------0------ -----------------------------------|
---------------------------3------------ --0h1p0-----3-----1-----0----1-----|
--------0------0------0------0-----0---- --------0-----0-----0-----0----0---|
--2-------2------2------2------2-----2-- ----------2-----2-----2-----2----2-|
---------------------------------------- --3--------------------------------|
---------------------------------------- -----------------------------------|

Go back to the begin of D.


E. at 2:22
| Repeat 4x |
----------------------------------------------------------------------|
-1~------3-----1-----0-----1-------0~---------------------------------|
-0~--0-----0-----0-----0-----0-------------2-----4-----2----0---------|
-------2-----2-----2-----2-----2------------------------------2-------|
-0~------------------------------------2-----2-----2-----2------------|
-----------------------------------0~----0-----0-----0-----0----0-----|

then play the D part again

F. at 3:08

The chords that are used are E and C.


sometimes the C changes in cmaj7 and at some point there is a D played.

Lead Guitar

--------------------------------------------------------------------------|
--------------------------------------------------------------------------|
---(11)~---11--11h12--12~-------12p11h12p11--12-12-----11~----------------|
----------------------------------------------------------12~---9-9-------|
---------------------------------------------------------------------10---|
--------------------------------------------------------------------------|

3:25
---------------------------------------------------------------------|
---------------------------------------------------------------------|
------------11h12-11-----------11~h12-12-----11h12-11----------------|
--7h9~---------------12-------------------------------12----12-------|
------------------------10~------------------------------14----/14~--|
---------------------------------------------------------------------|

------------------------------------------------------------------------|
------------------------------------------------------------------------|
-----14/16~--11-12----12p11~----9-------9------11---12p11-11------------|
--12----------------9---------9---12--9---9~------9---------------12~---|
---------------------------------------------------------------14-------|
------------------------------------------------------------------------|

3:56
------------------------------------------------|
------10h12~-----------10h12~-------------------|
-------------11~---------------11~--------------|
---12---------------12--------------------------|
------------------------------------------------|
------------------------------------------------|

UPDATED

---------------------------------------------------------------------|
------10~--12--8-8-------------8---8------------8-10/12-13-12--------|
--------------------7--------9---9---9~-------9---------------9-9~---|
--12-------------------9/10-------------10-9-------------------------|
---------------------------------------------------------------------|
---------------------------------------------------------------------|

-----------------------------------------------------------------------|
-------8-10/12--15-17-----------7-8/10-10-10h12p10p8/7h8---------------|
-----9----------------16~-----9--------------------------7-7h9-7-------|
---9------------------------9------------------------------------------|
-----------------------------------------------------------------------|
-----------------------------------------------------------------------|

4.33 use tapharmonics here

----------------------{2}h3-{2}--------------{3}p2~---------------------|
-------------------------------{3}~-----------------{3}-{3}-------------|
-----------------4~~----------------{5}-{4}~----------------{5}-{4}-----|
--10--9h10p9~~----------------------------------------------------------|
------------------------------------------------------------------------|
------------------------------------------------------------------------|

4.49

--2h3-{3}p2--------------------------------------------------------|
------------3~--10-10-12-------------------------------------------|
-------------------------11hb--14pbr-12h14p12/11~------------------|
--------------------------------------------------14/16\14---------|
-------------------------------------------------------------------|
-------------------------------------------------------------------|

---------------------------------------------12~--------|
---17-17-17p15-15----------------------12p10------------|
------------------14-16~~~----11hb-p9-------------------|
----------------------------9---------------------------|
--------------------------------------------------------|
--------------------------------------------------------|

-------------------------12~-10-12-12~------------|
------------12-10~-10-12--------------------------|
----11hb-p9---------------------------------------|
--9-----------------------------------------------|
--------------------------------------------------|
--------------------------------------------------|

5.24

----17-17-17-17p15-15-15/14-14-14-15-15~--17-17-17p15-15-15-14-14-14-15-15-|
---------------------------------------------------------------------------|
---------------------------------------------------------------------------|
---------------------------------------------------------------------------|
---------------------------------------------------------------------------|
---------------------------------------------------------------------------|

---17-17p15-15-15p14-14-15-15~--15-14--------------------------------|
--------------------------------------15-12-15h17-15-----------------|
-----------------------------------------------------16-14-12-11-----|
---------------------------------------------------------------------|
---------------------------------------------------------------------|
---------------------------------------------------------------------|
-------------------------|
-------------------------|
------12-12p11~~---------|
---14--------------------|
-------------------------|
-------------------------|

THE FAST PART

CREDIT GOES TO EMMERHOOFD!!

E|-----------0----------------0----------------------|
B|-------0----------------0--------------------------|
G|---9-----9---8X-----5-----5---2X-------------------| 2X
D|-----9----------------5----------------------------|
A|-7----------------3--------------------------------|
E|---------------------------------------------------|

E|-----------0----------------0---------------0---------------0------|
B|-------0----------------0---------------0---------------0----------|
G|---9-----9---4X-----7-----7---4X----5-----5---6X----7-----7---2X---|
D|-----9----------------7---------------5---------------5------------|
A|-7----------------5---------------3---------------5----------------|
E|-------------------------------------------------------------------|

E|-----------0----------------0------------------0-------|
B|-------0----------------0------------------0-----------|
G|---9-----9---12X----7-----7---4X-------5-----5---2x----|
D|-----9----------------7------------------5-------------|
A|-7----------------5------------------3-----------------|
E|-------------------------------------------------------|

------------------------------------|
------------------------------------|
------------------------------------|
------------------------------------|
------------------------------------|
--{12}~~~~~~~~~~~~~~~~~~~-----------|