Você está na página 1de 14

S S S S S S S S S S S S

S S S S S S S S S S S S
E||-----------------------------|----------------------------|
B||-----0---0----0---0---0----0-|----0---0----0---0---0----0-|
G||*----------------------------|----------------------------|
D||*------9---10---7---9--------|------9---10---7---9--------|
A||---7--------------------10---|--7--------------------10---|
E||-----------------------------|----------------------------|
S S S S S S S S S S S S
S S S S S S S S S S S S
----------------------------|----------------------------|
----0---0----0---0---0----0-|----0---0----0---0---0----0-|
----------------------------|----------------------------|
------9---10---7---9--------|--7------------7------------|
--7--------------------10---|------9---10-------9---10---|
----------------------------|----------------------------|
S S S S S S S S S S S S
S S S S S S S S S S S S
----------------------------|----------------------------|
----0---0----0---0---0----0-|----0---0----0---0---0----0-|
----------------------------|----------------------------|
------9---10---7---9--------|------9---10---7---9--------|
--7--------------------10---|--7--------------------10---|
----------------------------|----------------------------|
S S S S S S S S S S S S
S S S S S S S S S S S S
----------------------------|----------------------------|
----0---0----0---0---0----0-|----0---0----0---0----0---0-|
----------------------------|----------------------------|
------9---10---7---9--------|--7-------------------------|
--7--------------------10---|------9---10---7------------|
----------------------------|-------------------10---8---|
S S S S S S S S S S S S
S S S S S S S S S S S S
---------------------------|---------------------------|
----0---0----0---0---0---0-|----0---0----0---0---0---0-|
---------------------------|---------------------------|
------9---10---7---9-------|------9---10---7---9-------|
-----------------------9---|-----------------------9---|
--7------------------------|--7------------------------|
S S S S S S S S S S S S
S S S S S S S S S S S S
----------------------------|----------------------------|
----0---0---0---0----0----0-|----0----0---0---0----0---0-|
----------------------------|----------------------------|
----------7---9---10---12---|--9---10---7---9------------|
------9---------------------|-------------------10---9---|
--7-------------------------|----------------------------|
S S S S S S S S S S S S
S S S S S S S S S S S S
---------------------------|---------------------------|
----0---0----0---0---0---0-|----0---0----0---0---0---0-|
---------------------------|---------------------------|

------9---10---7---9-------|------9---10---7---9-------|
-----------------------9---|-----------------------9---|
--7------------------------|--7------------------------|
S S S S S S S S S S S S
S S S S S S S S S S S S
----------------------------|---------------------------|
----0---0---0----0----0---0-|-----0---0---0---0---0---0-|
----------------------------|---------------------------|
------7---9---10---12---9---|--10---7---9---5---7---4---|
----------------------------|---------------------------|
--7-------------------------|---------------------------|
|-3-| |-3-| |-3-| |-3-| |-3-| |-3-|
|-3-| |-3-| |-3-| |-3-| |-3-| |-3-|
S S S S S S S S S S S S S S S S S S
S S S S S S S S S S S S S S S S S S
------7-----7-----7-----7-----7-----7-|------7-----7-----7-----7-----7----7-|
----0-----0-----0-----0-----0-----0---|----0-----0-----0-----0-----0-----0--|
--------4-----5-----------4-----0-----|--------4-----5-----------4-----0----|
--------------------7-----------------|--------------------7----------------|
--7-----------------------------------|--7----------------------------------|
--0-----------------------------------|--0----------------------------------|
|-3-| |-3-| |-3-| |-3-| |-3-| |-3-|
|-3-| |-3-| |-3-| |-3-| |-3-| |-3-|
S S S S S S S S S S S S S S S S S S
S S S S S S S S S S S S S S S S S S
------7-----7-----7-----7-----7-----7-|------7-----7-----7-----7-----7----7-|
----0-----0-----0-----0-----0-----0---|----0-----0-----0-----0-----0-----0--|
--------4-----5-----------4-----0-----|-------------------------------------|
--------------------7-----------------|--7-----4-----5-----7-----4-----5----|
--7-----------------------------------|-------------------------------------|
--0-----------------------------------|-------------------------------------|
|-3-| |-3-| |-3-| |-3-| |-3-| |-3-|
|-3-| |-3-| |-3-| |-3-| |-3-| |-3-|
S S S S S S S S S S S S S S S S S S
S S S S S S S S S S S S S S S S S S
------7-----7-----7-----7-----7-----7-|------7-----7-----7-----7-----7----7-|
----0-----0-----0-----0-----0-----0---|----0-----0-----0-----0-----0-----0--|
--------4-----5-----------4-----0-----|--------4-----5-----------4-----0----|
--------------------7-----------------|--------------------7----------------|
--7-----------------------------------|--7----------------------------------|
--0-----------------------------------|--0----------------------------------|

|-3-| |-3-| |-3-| |-3-| |-3-| |-3-|


|-3-| |-3-| |-3-| |-3-| |-3-| |-3-|
S S S S S S S S S S S S S S S S S S
S S S S S S S S S S S S S S S S S S
------7-----7-----7-----7-----7-----7-|------7-----7-----7-----7-----7----7-|
----0-----0-----0-----0-----0-----0---|----0-----0-----0-----0-----0-----0--|
--------4-----5-----------4-----0-----|-------------------------------------|
--------------------7-----------------|--7-----4-----5----------------------|
--7-----------------------------------|--------------------7-----5-----3----|
--0-----------------------------------|-------------------------------------|
^

^
|-3-| |-3-| |-3-| |-3-| |-3-|
|-3-| |-3-| |-3-| |-3-| |-3-|
E S S S S S S S S S S S S S S S
E S S S S S S S S S S S S S S S
--7---------------------------------|--7---------------------------------|
--7----0-0----0-0---0-0---0-0---0-0-|--7----0-0----0-0---0-0---0-0---0-0-|
--8---------------------------------|--8---------------------------------|
--9--9-----10-----7-----9-----------|--9--9-----10-----7-----9-----------|
--9---------------------------9-----|--9---------------------------9-----|
--7---------------------------------|--7---------------------------------|
^
|-3-| |-3-| |-3-|

|-3-|

|-3-|

|-3-|

|-3-| |-3-| |-3-|

|-3-| |-3-

|
E S S S S S S S S S S S S S S S
S S S S S S S S S S S S S S S S S
S
--7----------------------------------|---------------------------------------|
--7----0-0---0-0---0-0----0-0----0-0-|----0-0----0-0---0-0---0-0----0-0---00-|
--8----------------------------------|---------------------------------------|
--9--------7-----9-----10-----12-----|--9-----10-----7-----9------------9----|
--9--9-------------------------------|---------------------------10----------|
--7----------------------------------|---------------------------------------|
^

^
|-3-| |-3-| |-3-| |-3-| |-3-|
|-3-| |-3-| |-3-| |-3-| |-3-|
E S S S S S S S S S S S S S S S
E S S S S S S S S S S S S S S S
--7---------------------------------|--7---------------------------------|
--7----0-0----0-0---0-0---0-0---0-0-|--7----0-0----0-0---0-0---0-0---0-0-|
--8---------------------------------|--8---------------------------------|
--9--9-----10-----7-----9-----------|--9--9-----10-----7-----9-----------|
--9---------------------------9-----|--9---------------------------9-----|
--7---------------------------------|--7---------------------------------|
^

|-3-| |-3-| |-3-|

|-3-|

|-3-|

|-3-|

|-3-| |-3-| |-3-|

|-3-| |-3-

|
E S S S S S S S S S S S S S S S
S S S S S S S S S S S S S S S S S
S
--7----------------------------------|---------------------------------------|
--7----0-0---0-0---0-0----0-0----0-0-|----0-0----0-0---0-0---0-0----0-0---00-|
--8----------------------------------|---------------------------------------|
--9--------7-----9-----10-----12-----|--9-----10-----7-----9------------9----|
--9--9-------------------------------|---------------------------10----------|
--7----------------------------------|---------------------------------------|
^

^
|-3-|

|-3-|

|-3-| |-3-|

|-3-|

|-3-|

|-3-|

|-3-| |-3-|

|-

3-|
E S S S S S S S S S S S S S S S
E S S S S S S S S S S S S S S
S
--12-----------------------------------|--12----------------------------------|
---0----0-0----0-0----0-0---0-0----0-0-|---0----0-0----0-0----0-0---0-0---0-0-|
---0-----------------------------------|---0----------------------------------|
---9--9-----10------------9------------|---9--9-----10------------9-----------|
--10---------------12-----------10-----|--10---------------12-----------10----|
---0-----------------------------------|---0----------------------------------|
^
|-3-| |-3-| |-3-| |-3-| |-3-|
E S S S S S S S S S S S S S S S
--12-----------------------------------|
---0----0-0----0-0----0-0---0-0----0-0-|
---0-----------------------------------|
---9--9-----10------------9------------|
--10---------------12-----------10-----|
---0-----------------------------------|
|-3-| |-3-| |-3-| |-3-| |-3-| |-3-|
S S S S S S S S S S S S S S S S S S
------------------------------------------|
-----0-0---0-0----0-0----0-0---0-0----0-0-|
------------------------------------------|
------------------------------------------|
--12-----9-----10-----12-----9-----10-----|
------------------------------------------|
^
|-3-|

|-3-| |-3-|

|-3-|

|-3-|

E
S S S S S S S S S S S S S S S
--12-------8------8-----8------8------8-|
---8------------------------------------|
---9-----9------9-----9------9------9---|
---8--10-----12-----9-----10------------|
--10-----------------------------10-----|
---8------------------------------------|
^
|-3-| |-3-| |-3-| |-3-| |-3-|
E
S S S S S S S S S S S S S S S
--12-------8------8-----8------8------8-|
---8------------------------------------|
---9-----9------9-----9------9------9---|
---8--10-----12-----9-----10------------|
--10-----------------------------10-----|
---8------------------------------------|
^
|-3-| |-3-| |-3-| |-3-| |-3-|
E
S S S S S S S S S S S S S S S
--12-------8------8-----8------8------8-|
---8------------------------------------|
---9-----9------9-----9------9------9---|
---8--10-----12-----9-----10------------|
--10-----------------------------10-----|
---8------------------------------------|
^
|-3-| |-3-| |-3-| |-3-| |-3-| |-3-|
|-3-| |-3-| |-3-| |-3-| |-3-|
S S S S S S S S S S S S S S S S S S
E S S S S S S S S S S S S S S S
------8-----8------8-----8-----8-----8-|--7------7------7-----7-----7-----7|
----7-----7------7-----7-----7-----7---|--7----7------7-----7-----7-----7--|
---------------------------------------|--8--------------------------------|
--7------------------7-----------------|--9--9-----10-----8-----9----------|
--------9-----10-----------7-----9-----|--9---------------------------9----|
---------------------------------------|--7--------------------------------|
^

^
|-3-| |-3-| |-3-| |-3-| |-3-|
|-3-| |-3-| |-3-| |-3-| |-3-|
E
S S S S S S S S S S S S S S S
E S S S S S S S S S S S S S S S
---8-------8------8-----8------8------8-|--7------7------7-----7-----7----7-|
---8------------------------------------|--7----7------7-----7-----7-----7--|
---9-----9------9-----9------9------9---|--8--------------------------------|
---8--10-----12-----9-----10------------|--9--9-----10-----8-----9----------|

--10-----------------------------10-----|--9---------------------------9----|
---8------------------------------------|--7--------------------------------|
^

^
|-3-| |-3-| |-3-| |-3-| |-3-|
|-3-| |-3-| |-3-| |-3-| |-3-|
E
S S S S S S S S S S S S S S S
E S S S S S S S S S S S S S S S
---8-------8------8-----8------8------8-|--7------7------7-----7-----7----7-|
---8------------------------------------|--7----7------7-----7-----7-----7--|
---9-----9------9-----9------9------9---|--8--------------------------------|
---8--10-----12-----9-----10------------|--9--9-----10-----8-----9----------|
--10-----------------------------10-----|--9---------------------------9----|
---8------------------------------------|--7--------------------------------|
|-3-| |-3-| |-3-| |-3-| |-3-| |-3-|
|-3-| |-3-| |-3-| |-3-| |-3-| |-3-|
S S S S S S S S S S S S S S S S S S
S S S S S S S S S S S S S S S S S S
------7-----7-----7-----7-----7-----7-|------7-----7-----7-----7-----7----7-|
----0-----0-----0-----0-----0-----0---|----7-----7-----7-----7-----7-----7--|
--------------------------------------|-------------------------------------|
--7-----4-----5-----7-----4-----5-----|--------4-----5-----7-----4-----5----|
--------------------------------------|--7----------------------------------|
--------------------------------------|-------------------------------------|
|-3-| |-3-| |-3-| |-3-| |-3-| |-3-|
S S S S S S S S S S S S S S S S S S
S S S S S S S S S S S S
------7-----7-----7-----7-----7-----7-|----------------------------|
----7-----7-----7-----7-----7-----7---|----0---0----0---0---0----0-|
--------------------------------------|----------------------------|
--------4-----5-----------0-----------|------9---10---7---9--------|
--7-----------------7-----------3-----|-----------------------10---|
--------------------------------------|--7-------------------------|
S S S S S S S S S S S S
S S S S S S S S S S S S
----------------------------|----------------------------|
----0---0----0---0---0----0-|----0---0----0---0---0----0-|
----------------------------|----------------------------|
--7------------7------------|---------------7------------|
------9---10-------9---10---|--7---9---10-------9---10---|
----------------------------|----------------------------|

S S S S

S S S S

S S S S

|-3-| |-3-| |-3-|


S S S S S S S S S

|-3-| |-3-| |-3-|


S S S S S S S S S

----------------------------|---------------------------------------|
----0---0----0---0----0---0-|------7-----7-----7------7-----7-----7-|
----------------------------|----8-----8-----8------8-----8-----8---|
----------------------------|--------------9-----10-----8-----9-----|
--7---9---10---7------------|--------9------------------------------|
-------------------10---8---|--7-L-L-L-L-L-L-L-L--------------------|
|-3-| |-3-| |-3-| |-3-| |-3-| |-3-|
S S S S S S S S S S S S S S S S S S
------0-----0------0-----0-----0------0-|
----8-----8------8-----8-----8------8---|
--------0------------7------------------|
--------------10-----------9-----10-----|
----------------------------------------|
--7-L-L-L-L-L--L-L-L--------------------|
|-3-| |-3-| |-3-| |-3-| |-3-| |-3-|
S S S S S S S S S S S S S S S S S S
---------------------------------------|
------7-----7-----7------7-----7-----7-|
----8-----8-----8------8-----8-----8---|
--------------9-----10-----8-----9-----|
--------9------------------------------|
--7-L-L-L-L-L-L-L-L--------------------|
|-3-| |-3-| |-3-| |-3-| |-3-| |-3-|
S S S S S S S S S S S S S S S S S S
------0-----0------0-----0-----0------0-|
----8-----8------8-----8-----8------8---|
--------0------------7------------------|
--------------10-----------9-----10-----|
----------------------------------------|
--7-L-L-L-L-L--L-L-L--------------------|
|-3-| |-3-| |-3-| |-3-| |-3-| |-3-|
S S S S S S S S S S S S S S S S S S
---------------------------------------|
------7-----7-----7------7-----7-----7-|
----8-----8-----8------8-----8-----8---|
--------------9-----10-----8-----9-----|
--------9------------------------------|
--7-L-L-L-L-L-L-L-L--------------------|
|-3-| |-3-| |-3-| |-3-| |-3-| |-3-|
S S S S S S S S S S S S S S S S S S
S S S S S S S S S S S S
----------------------------------------|------------------------7-|
------7------7-----7------7-----7-----7-|------------0-0-----7-7---|
----8------8-----8------8-----8-----8---|----------------8-8-------|
--9-----10-----8-----10-----9-----------|--------4-4---------------|
----------------------------------9-----|----6-6-------------------|
----------------------------------------|--7-----------------------|
S S S S S S S S S S S S
H.
Q
Q
Q
--7-----------------11-11-14-14-19-|--19------------|-----------------|

--------------12-12----------------|---0------------|--0--------------|
----8-8-11-11----------------------|----------------|-----------------|
-----------------------------------|--13------------|--4--------------|
-----------------------------------|----------------|--6--------------|
-----------------------------------|----------------|--7--------------|
H
E E
Q.
S S E E
H
Q
Q
H
--7--------5--7--|--10------7-8-7--5--|--7-------------|-------<>2--------|
-----------------|--------------------|-----------4----|--L---------------|
-----------------|--------------------|-----------4----|--L---------------|
--9--------7--9--|--12----------9--7--|--9--------4----|--L---------------|
-----------------|--------------------|-----------2----|--L---------------|
-----------------|--------------------|----------------|------------------|
H
E E
Q.
S S E E
H
Q
Q
H
--7--------5--7--|--10------7-8-7--5--|--7-------------|-------<>2--------|
-----------------|--------------------|-----------4----|--L---------------|
-----------------|--------------------|-----------4----|--L---------------|
--9--------7--9--|--12----------9--7--|--9--------4----|--L---------------|
-----------------|--------------------|-----------2----|--L---------------|
-----------------|--------------------|----------------|------------------|
H
Q
E S S E E E E
H
Q
Q
H
--7--------6----|--L--3-5-3--2--0--3--|--2-------------|-------<>2--------|
----------------|---------------------|-----------4----|--L---------------|
----------------|---------------------|-----------4----|--L---------------|
--9--------8----|--L------5--4--2--5--|--4--------4----|--L---------------|
----------------|---------------------|-----------2----|--L---------------|
----------------|---------------------|----------------|------------------|
^
^
H
E E
E S T T E E E E
H
Q
H.
--7---------8--7--|--6--2-3-5-3--2--0--3--|--2-------------|---------------|
------------------|-----------------------|-----------5----|--4------------|
------------------|-----------------------|-----------3----|--4------------|
--9--------10--9--|--8--4-----5--4-----5--|--4--------4----|--4------------|
------------------|-----------------7-----|-----------3----|--2------------|
------------------|-----------------------|----------------|---------------|
Q
H
Q
T T S E E E
Q
H
Q
Q
Q
-------0--------|-------------------8--|-------0--------|------------------|
-------7--------|-------4-6-4----4-----|-------7--------|---------0----L---|
----------------|-----------5-7--------|----------------|------------------|
--5-------------|--4-------------------|--5-------------|---------8----7---|
----------------|----------------------|----------------|--6g9---------6---|
----------------|----------------------|----------------|------------------|
Q

-----------------|-----------------|-----------------|----------------|
------------0----|------------0----|-------7----0----|----------------|
-----------------|-----------------|-----------------|-------9--------|
-------5---------|-------4---------|--5--------------|-------8--------|
--7--------------|--5--------------|-----------------|--9-------------|
-----------------|-----------------|--8--------------|--8-------------|
Q
Q
Q
E E
E
S S E E
Q
Q
Q
-----------------|---------0--------0-----|-----------------|
------------0----|------------------------|------------0----|
------------8----|--------11-------11-----|------------8----|
-----------------|------------------------|-----------------|
-------9---------|--0------------------0--|-------9---------|
--7--------------|-----7---8--10-8--7-----|--7--------------|
E E
E
S S E E
Q
Q
Q
E E
E
S
S E E
---------0--------0-----|-----------------|-------------------------|
------------------------|------------0----|-------------------------|
--------11-------11-----|------------8----|-------------------------|
------------------------|-----------------|--7--9--10--12p-10-9--7--|
--0------------------0--|-------9---------|-------------------------|
-----7---8--10-8--7-----|--7--------------|-------------------------|
S S S S S S S S S S S S
S S S S S S S S S S S S
Q
Q
Q
--------------------------|--------------------------|-----------------|
----0---0---0---0---0---0-|----0---0---0---0---0---0-|------------0----|
--------------------------|--------------------------|------------8----|
--9---8-------7---6-------|--5---4-------3---2-------|-----------------|
----------9-----------7---|----------6-----------3---|-------9---------|
--------------------------|--------------------------|--7--------------|
E E E
S S E E
Q
Q
Q
E E E
S S E E
--------5--------5-----|------------4----|--------5--------5-----|
--------6--------6-----|------------5----|--------6--------6-----|
-----------------------|-------4---------|-----------------------|
-----------------------|-----------------|-----------------------|
--------5h--7p-5-------|-----------------|--------5h--7p-5-------|
--7--8-----------8--7--|--0--------------|--7--8-----------8--7--|
Q
Q
Q
E E E S S E E
E E E E E E
------------4----|--------0-------------|--------------------|
------------5----|--1--4-----0h-1----0--|-----0-----0-----0--|
-------4---------|----------------2-----|--0-----------------|
-----------------|--2-----2-------1-----|--2-----4-----5-----|
-----------------|--0-------------------|--------6-----7-----|
--0--------------|--------3-------2-----|--0-----7-----0-----|
E E E S S E E
E E E E E E
E E E E T T S E
--0--2--3----0-------|--------------------|--------5--8--6-8-6-5--|
-----------3---1--3--|--0--3-----3--0--3--|--6--8-----------------|
--0-----0------------|--------3-----------|-----------------------|
---------------4-----|--0-----0-----0-----|-----------------------|
--3-----2------0-----|--------------------|-----------------------|
---------------------|--3-----2-----3-----|-----------------------|

E E T T S E E E
E E E S S E E
Q
Q
Q
--8--5------------5--8--|---------------------|-----------------|
--------8-10-8-7--------|--------5--7-5-------|------------4----|
------------------------|--5--7---------7--5--|------------4----|
------------------------|--4------------5-----|-----------------|
------------------------|--0------------7-----|-------9---------|
------------------------|---------------6-----|--7--------------|
E E E S S E E
Q
Q
Q
E E E S S E E
--------5-------5-----|-----------------|--------5-------5-----|
--------7-------7-----|------------4----|--------7-------7-----|
----------------------|------------4----|----------------------|
-----0----------------|-----------------|-----0----------------|
--------7--9p-7-5-----|-------9---------|--------7--9p-7-5-----|
--8----------------8--|--7--------------|--8----------------8--|
|-3-| |-3-| |-3-| |-3-| |-3-| |-3-|
Q
Q
Q
S S S S S S S S S S S S S S S S S S
-----------------|-------7-----7-----7-----7-----7-----7-|
------------4----|-----8-----8-----8-----8-----8-----8---|
------------4----|---------------------7-----------------|
-----------------|---------8-----9-----------8-----9-----|
-------9---------|--10-----------------------------------|
--7--------------|---------------------------------------|
|-3-| |-3-| |-3-| |-3-| |-3-| |-3-|
S S S S S S S S S S S S S S S S S S
---------------------------------------|
-------7-----7-----7-----7-----7-----7-|
-----7-----7-----7-----7-----7-----7---|
---------------------7-----------------|
---------8-----9-----------8-----9-----|
--10-----------------------------------|
T T T T T T T T T T T T T T T T T T T T T T T T
H
E E
--------0-------0--------0-------0--------0-------0-|--7--------5--7--|
----------------------------------------------------|--0--------------|
------0-------0--------0-------0--------0-------0---|-----------------|
----8-------8--------8-------8--------8-------8-----|-----------7--9--|
----------9-------10-------7------------------------|-----------------|
--8--------------------------------10-------8-------|--7--------------|
H
T T S E
H
Q
Q
H
H
E E
--10--------7-8-7-5--|--7-------------|-------<>2--------|--7--------5--7--|
---------------------|--0--------4----|--L---------------|--0--------------|
---7-----------------|-----------4----|--L---------------|-----------------|
----------------9-7--|-----------4----|--L---------------|-----------7--9--|
---------------------|-----------2----|--L---------------|-----------------|
---------------------|----------------|------------------|--7--------------|
H
T T S E
Q
Q
Q
Q
H
Q
--10--------7-8-7-5--|--7----0----------||-------|--0-------------|

---------------------|--0---------4-----||-------|----------------|
---7-----------------|-------3----4----*||--2----|--0--------2----|
----------------9-7--|-------4----4----*||-------|--2-------------|
---------------------|-------3----2-----||-------|--3-------------|
---------------------|------------------||-------|----------------|
H.
H
Q
H.
H
Q
---------------|----------------|---------------|--1-------------|
--0------------|--1-------------|---------------|--1--------2----|
--0------------|----------------|--0------------|--2--------3----|
--0------------|--2--------4----|--2------------|----------------|
---------------|--0-------------|--2------------|----------------|
--3------------|----------------|--3------------|----------------|
H
Q
H.
Q
Q
Q
S S S S S S S S S S S
S
--2--------0----|--0------------|--L--------------|---------------------------|
--1-------------|--1------------|--L----0---------|----0---0----0---0---0---0-|
--2-------------|--2------------|--L----0---------|---------------------------|
----------------|---------------|------------7----|------9---10---7---9-------|
----------------|--2------------|--L---------9----|--7-------------------10---|
----------------|---------------|-----------------|---------------------------|
|-3-| |-3-| |-3-| |-3-| |-3-|
S S S S S S S S S S S S
E S S S S S S S S S S S S S S S
----------------------------|-----------------------------------|
----0---0----0---0---0----0-|-----------------------------------|
----------------------------|---------0-----0-----0-----0-----0-|
------9---10---7---9--------|-----------------------------------|
--7--------------------10---|--7----7-----7-----7-----7-----7---|
----------------------------|-----8-----6-----8-----6-----8-----|
|-3-| |-3-| |-3-| |-3-| |-3-| |-3-|
S S S S S S S S S S S S S S S S S S
H.
H.
--------------------------------------|--0------------|---------------||
--------------------------------------|--0------------|---------------||
------0-----0-----0-----0-----0-----0-|--0------------|---------------||
--------------------------------------|--2------------|--2------------||
----7-----7-----7-----7-----7-----7---|--2------------|---------------||
--6-----8-----6-----8-----6-----8-----|--0------------|--0------------||

Duration Legend
--------------W - whole
H - half
Q - quarter
E - 8th

S - 16th
T - 32nd
X - 64th
. - note dotted
|-n-| - n-tuplets
Tablature Legend
---------------L - tied note
x - dead note
g - grace note
(n) - ghost note
> - accentuded note
NH - natural harmonic
AH - artificial harmonic
TH - tapped harmonic
SH - semi harmonic
PH - pitch harmonic
h - hammer on
p - pull off
b - bend
br - bendRelease
pb - preBend
pbr - preBendRelease
brb - bendReleaseBend
\n/ - tremolo bar dip
\n - tremolo bar dive
-/n - tremolo bar Release up
/n\ - tremolo bar inverted dip
/n - tremolo bar return
-\n - tremolo bar Release down
S - shift slide
s - legato slide
/ - slide into from below or out of upwards
\ - slide into from above or out of downwards
~ - vibrato
W - wide vibrato
tr - trill
TP - tremolo picking
T - tapping
S - slap
P - pop
< - fade in
^ - brush up
v - brush down

PART A
|-7-----7-----7-----|-7-----5-----3-----|-3-----2-----0-----|
|---0-----0-----0---|---0-----0-----0---|---0-----0-----0---|
|-----0-----0-----0-|-----0-----0-----0-|-----0-----0-----0-|
|-------------------|-------------------|-------------------|
|-------------------|-------------------|-------------------|
|-0-----------------|-0-----------------|-0-----------------|

|-0-----3-----7-----|-12-----12-----12-----|-12-----10-----8-----|
|---0-----0-----0---|----0------0------0---|----0------0-----0---|
|-----0-----0-----0-|------0------0------0-|------0------0-----0-|
|-------------------|----------------------|---------------------|
|-------------------|----------------------|---------------------|
|-0-----------------|-0--------------------|-0-------------------|
|-8-----7-----5-----|-5-----7-----8-----|-7-----8-----7-----|
|---5-----5-----5---|---5-----5-----5---|---7-----7-----7---|
|-----5-----5-----5-|-----5-----5-----5-|-----8-----8-----8-|
|-------------------|-------------------|-------------------|
|-0-----------------|-0-----------------|-------------------|
|-------------------|-------------------|-7-----------------|
|-11-----8-----7-----|-7-----5-----3-----|-3-----2-----0-----|
|----7-----7-----8---|---0-----0-----0---|---0-----0-----0---|
|------8-----8-----7-|-----0-----0-----0-|-----0-----0-----0-|
|--------------------|-------------------|-------------------|
|--------------------|-------------------|-------------------|
|-7------------------|-0-----------------|-0-----------------|
|-2-----2-----2-----|-2-----3-----2-----|-0-----0-----0------|
|---0-----0-----0---|---0-----0-----0---|---0-----0-----0----|
|-----2-----2-----2-|-----2-----2-----2-|-----0-----0-----0--|
|-------------------|-------------------|-2------------------|
|-2-----------------|-2-----------------|-------2------------|
|-------------------|-------------------|-------------3------|
|--0--|
|--0--|
|--0--|
|-(2)-| (let ring)
|-(2)-|
|--0--|
PART B
|-4-----4-----4-----|-4-----2-----0-----|-------------------|
|---0-----0-----0---|---0-----0-----0---|-5-----4-----4-----|
|-----1-----1-----1-|-----1-----1-----1-|---2-----2-----2---|
|-------------------|-------------------|-----4-----4-----4-|
|-------------------|-------------------|-------------------|
|-0-----------------|-0-----------------|-2-----------------|
|-------------------|-9-----9-----9-----|-9-----11-----9-----|
|-4-----3-----4-----|---7-----7-----7---|---7------7-----7---|
|---2-----2-----2---|-----8-----8-----8-|-----8------8-----8-|
|-----4-----4-----4-|-------------------|--------------------|
|-------------------|-------------------|--------------------|
|-2-----------------|-7-----------------|-7------------------|
|-9-----7-----7-----|-7-----9-----11-----|-12-----12-----12-----|
|---9-----9-----9---|---9-----9------9---|----9------9------9---|
|-----9-----9-----9-|-----9-----9------9-|------9------9------9-|
|-------------------|--------------------|----------------------|
|-------------------|--------------------|----------------------|
|-0-----------------|-0------------------|-0--------------------|
|-12-----11-----10-----|-9------9------9--------|-9-----7-----5-----|
|----9------9------9---|---10-----10-----10-----|---5-----5-----5---|
|------9------9------9-|------9------9------9---|-----6-----6-----6-|
|----------------------|------------------------|-------------------|
|----------------------|------------------------|-------------------|
|-0--------------------|-0----------------------|-0-----------------|
|-4-----4-----4-----|-4-----5-----2-----|-0-----0-----0-----|
|---5-----5-----5---|---4-----4-----4---|---0-----0-----0---|
|-----4-----4-----4-|-----2-----2-----2-|-----1-----1-----1-|
|-------------------|-------------------|-2-----------------|
|-------------------|-2-----------------|-------2-----------|
|-0-----------------|-------------------|-------------4-----|
|--0--|
|--0--|
|--1--|
|-(2)-| (let ring)
|-(2)-|
|--0--|

PART
PART
PART
PART
PART
PART

A
A
B
A
B
A

THEN PLAY THIS:


|-------12*------|
|-------12*------|
|----12*---------|
|-12*------------| *THESE ARE ALL HARMONICS*
|----------------|
|----------------|
this is a tricky song to master, but it's very rewarding.
I really hope you enjoy. it's undoubtedly the best classical piece ever written
and I hope I didn't mess this up!
please rate!
UPDATE 4/29/10: After watching a lot of videos of people playing it, there was a
order that suits the song best.
I've also changed the last chords you strum.
Here's a link of a guy playing in the order:
http://www.youtube.com/watch?v=iqCt6PznJAI

Can't play "Romance Anonimo"? Improve your playing via easy step-by-step video lessons!