Você está na página 1de 1

Nirvana - Lithium

Tom: E
Afinao: D G C F A D
RIFF 1 :
E5

G#5

C#5

A5

C5

D5

B5

D5

|--------------------------------------------------------------|
|--------------------------------------------------------------|
|-----------------6--------------------------------------------|
|---------------------------7---5-5-5-5/7-7-7---4-4-4-4/7-7-7--|
|---------6-----4---------7---0-3-3-3-3/5-5-5-0-2-2-2-2/5-5-5-0|
|-0-X-0-4---X-0-----X-0-5--------------------------------------|
p.m..............................................................
RIFF 2:
E5
G#5
C#5 A5
C5
D5
B5
D5
|----------------------------------------------------------------|
|----------------------------------------------------------------|
|----------------------------------------------------------------|
|-2-2---------6-6-0---------5-555/7-77-0-4-444/7-77-0------------|
|-2-2-0-6-6-0-4-4-0-7-7-7-0-3-333/5-55-0-2-222/5-55-0------------|
|-0-0-0-4-4-0-------5-5-5-0--------------------------------------|
RIFF 3 (Com Distoro):
A5
C5
A5
C5
A5
C5
|--------------------------------------------------------|
|--------------------------------------------------------|
|--------------------------------------------------------|
|--------5-5-----------5-5-----------5-5-----------------|
|-7-7----3-3-0--7-7----3-3-0--7-7----3-3-0---------------|
|-5-5-0---------5-5-0---------5-5-0----------------------|
RIFF 4:
A5
G5
E5
|--------------------------------------------------------|
|--------------------------------------------------------|
|--------------------------------------------------------|
|--------------------------------------------------------|
|-7-7-7-7-7---5-5-5-5-5-5---2----------------------------|
|-5-5-5-5-5-0-3-3-3-3-3-3-0-0----------------------------|

Intro: Riff 1 uma vez.


(RIFF 1)
I'm so happy
'cause today i've found my friends,
They're in my head
I'm so ugly but that's ok,
'cause so are you,
We've broke our mirrors
Sunday morning is everyday for all i care
And i'm not scared
Light my candles in a daze
'cause i've found god
(RIFF 2)
Yeah, yeah (6x)
(RIFF 1)
I'm so lonely and that's ok,
I shaved my head,
And i'm not sad
And just maybe

I'm to blame for all i've heard,


And i'm not sure
I'm so excited
I can't wait to meet you there,
And i don't care
I'm so horny but that's ok,
My will is good
(RIFF 2)
Yeah, yeah (6x)
(RIFF 3) e no final toca o RIFF 4
I
I
I
I
I
I
I
I

like
miss
love
kill
like
miss
love
kill

you
you
you
you
you
you
you
you

i'm
i'm
i'm
i'm
i'm
i'm
i'm
i'm

(Solo Baixo)

not
not
not
not
not
not
not
not

gonna
gonna
gonna
gonna
gonna
gonna
gonna
gonna

crack,
crack
crack,
crack
crack,
crack
crack,
crack