Você está na página 1de 3

Tablatura Homem Do Leme de Xutos e Pontaps

Page 1 of 3

Homem Do Leme
Xutos e Pontaps
tom:
Anncios Google

acisumblog(acisumblog.blogspot.com)
um blog dedicado msica, principalmente msica portuguesa

"O Homem do Leme" - baseado no ?um


"Ao Vivo Na Antena 3"

Introdu:
Am
Em
F
G
Am
|-----0-------0-------0-------0---|-----1-------1-------3-----------|
|-----1-------1-------0-------0---|-----1-------1-------3-----------|
|-----2-------2-------0-------0---|-----2-------2-------4-----------|
|---------------------------------|---------------------------------|
|-0---------------2---------------|---------3-------------------0---|
|---------0---------------0-------|-1---------------3-------3-4-----|
=>Riff 1:
|--------12-12-12---13------------|-----15-15--13-13--12-12---------|
|-----------------------12-12-12--|-13-----------------------15-15--|
|---------------------------------|---------------------------------|
|---------------------------------|---------------------------------|
|-----0---------------------------|---------------------------------|
|-3-4-----------------------------|---------------------------------|
|--------12-12--10-10-------------|-12-12-12---13-------------------|
|-13-13---------------------------|----------------12-12-12---13----|
|---------------------------------|---------------------------------|
|---------------------------------|---------------------------------|
|---------------------------------|---------------------------------|
|---------------------------------|---------------------------------|
|---------------------------------|---------------------------------|
|-15-15--13-13--12-12-------------|---------------------------------|
|----------------------14-14--12--|-12-------14---------------------|
|---------------------------------|------15------15--14-------------|
|---------------------------------|---------------------------------|
|---------------------------------|---------------------------------|

Am
Em
F
G
Am
|-----0-------0-------0-------0---|-----1-------1-------3-----------|
|-----1-------1-------0-------0---|-----1-------1-------3-----------|
|-----2-------2-------0-------0---|-----2-------2-------4-----------|
|---------------------------------|---------------------------------|
|-0---------------2---------------|---------3-------------------0---|
|---------0---------------0-------|-1---------------3-------3-4-----|
Sozinho na noite,
um barco ruma.
Para onde vai?
Am
Em
F
G
Am
|-----0-------0-------0-------0---|-----1-------1-------3-----------|
|-----1-------1-------0-------0---|-----1-------1-------3-----------|
|-----2-------2-------0-------0---|-----2-------2-------4-----------|
|---------------------------------|---------------------------------|
|-----------------2---------------|---------3-------------------0---|

http://www.cifras.com.br/tablatura/xutos-e-pontapes/homem-do-leme/0,imprimir

07-06-2010

Tablatura Homem Do Leme de Xutos e Pontaps

Page 2 of 3

|---------0---------------0-------|-1---------------3-------3-4-----|
Uma luz no escuro, brilha a direito
ofusca as demais

Refr?1:
Am
Em
F
G
Am
|------------0---------0---------0---------|-0---------1---------1---------3---------|
|------------1---------1---------0---------|-0---------1---------1---------3---------|
|------------2---------2---------0---------|-0---------2---------2---------4---------|
|------------------------------------------|-----------------------------------------|
|---------------------------2--------------|----------------3----------------------0-|
|-----------------0-------------------0----|------1-------------------3--------3-4---|
E mais que uma onda, mais que uma mar? tentaram prende-lo, imp?he
uma f?
Am
Em
F
G
Am
|------------0---------0---------0---------|-0---------1---------1---------3---------|
|------------1---------1---------0---------|-0---------1---------1---------3---------|
|------------2---------2---------0---------|-0---------2---------2---------4---------|
|------------------------------------------|-----------------------------------------|
|---------------------------2--------------|----------------3----------------------0-|
|-----------------0-------------------0----|------1-------------------3--------3-4---|
Mas vogando ?ontade, rompendo a saudade, vai quem j?ada teme, vai o
homem do leme_____
Refr?2:
C
F
Am
Em
E uma vontade de rir, nasce do fundo do ser
C
F
Am
E uma vontade de ir, correr o mundo e partir,
Em
A vida ?empre a perder
Riff 1
Am
Em
F
G
Am
|-----0-------0-------0-------0---|-----1-------1-------3-----------|
|-----1-------1-------0-------0---|-----1-------1-------3-----------|
|-----2-------2-------0-------0---|-----2-------2-------4-----------|
|---------------------------------|---------------------------------|
|-0---------------2---------------|---------3-------------------0---|
|---------0---------------0-------|-1---------------3-------3-4-----|
No fundo do mar,
jazem os outros,
os que l?icaram.
Am
Em
F
G
Am
|-----0-------0-------0-------0---|-----1-------1-------3-----------|
|-----1-------1-------0-------0---|-----1-------1-------3-----------|
|-----2-------2-------0-------0---|-----2-------2-------4-----------|
|---------------------------------|---------------------------------|
|-----------------2---------------|---------3-------------------0---|
|---------0---------------0-------|-1---------------3-------3-4-----|

http://www.cifras.com.br/tablatura/xutos-e-pontapes/homem-do-leme/0,imprimir

07-06-2010

Tablatura Homem Do Leme de Xutos e Pontaps

Am

Em dias cinzentos,

descansoG eterno,

Page 3 of 3

l?ncontraram.

Refr?1
Refr?2
Riff 1
Am
Em
F
G
Am
|-----0-------0-------0-------0---|-----1-------1-------3-----------|
|-----1-------1-------0-------0---|-----1-------1-------3-----------|
|-----2-------2-------0-------0---|-----2-------2-------4-----------|
|---------------------------------|---------------------------------|
|-0---------------2---------------|---------3-------------------0---|
|---------0---------------0-------|-1---------------3-------3-4-----|
No fundo horizonte, sopra o murm?
Para onde vai?
Am
Em
F
G
Am
|-----0-------0-------0-------0---|-----1-------1-------3-----------|
|-----1-------1-------0-------0---|-----1-------1-------3-----------|
|-----2-------2-------0-------0---|-----2-------2-------4-----------|
|---------------------------------|---------------------------------|
|-----------------2---------------|---------3-------------------0---|
|---------0---------------0-------|-1---------------3-------3-4-----|
Do fundo do tempo,
foge o futuro,
?arde demais_____

Refr?2

x2

Em

http://www.cifras.com.br/tablatura/xutos-e-pontapes/homem-do-leme/0,imprimir

07-06-2010