Você está na página 1de 2

Os Azeitonas - Anda Comigo Ver Os Avies

Tom: A
Intro:
A
C#7
F#m
F7M F7M/A
E|-----------------|-------------|------2----|------|-----|
B|-2-------5-3-2---|-------2-----|------2-2--|-1----|-1---|
G|-2-4-2---------4-|-1-2-4---4-1-|-4-2-----2-|-2-2--|-2-2-|
D|-2---------------|-3-----------|-4--4------|-2--2-|-0--0|
A|-0----0----------|-4---4-------|-4---------|------|-0---|
E|-----------------|-------------|-2---------|-1----|-----|

E
A
C#7
F#m
E|----------|------------------|---------|-4-5----5-4-2---|
B|----------|-2--------5-3-2---|-------2-|-2---2--------2-|
G|-1--2--4--|-2-4-2----------4-|-1-2-4---|-2----2---------|
D|-2--4--6--|-2----------------|-3-------|-4------4-------|
A|-2--3--5--|-0-----0----------|-4---4---|----------------|
E|-0--------|------------------|---------|----------------|

F
E4 E
E|--------|------------|
B|-5---3--|------------|
G|-5-5-5--|--2-1--2--4-|
D|-3---3--|--2-2--4--6-|
A|--------|--2-2--3--5-|
E|--------|--0-0-------|
Verso 1:
A
C#7
Anda comigo ver os avies
F#m
F7M
Levantar voo, a rasgar as nuvens
E
Rasgar o cu
A
C#7
Anda comigo ao porto de Leixes
F#m
F7M
Ver os navios, a levantar ferro
E
Rasgar o mar
A
E
C#m9
F#m C#7 D7+
E|-------------------|------|----------|----|-----|--2-2--|
B|---5-5-5--3-2-3--5-|-9--7-|-3-3--2---|-3-2|---2-|--2-2--|
G|---6-6-6--4-2-4--6-|-9--7-|-4-4--4-4-|-2-2|--4--|--2-2--|
D|-------------------|------|-3-3--3---|-4-2|-3---|--0----|
A|-0-----------------|------|-4-4--4---|----|-4---|-------|
E|-------------------|-0----|----------|-2--|-----|-------|

Ebdim E
Fdim F#m C#7 D7+ Ebdim E
Fdim
E|-2-2-|-0-0-|-4-4-|-2-2-|-----|-2-2-|-2-2-|-0-0-|-4-4----|
B|-1-1-|-0-0-|-3-3-|-2-2-|-2-2-|-2-2-|-1-1-|-0-0-|-3-3----|
G|-2-2-|-1-1-|-4-4-|-2-2-|-4-4-|-2-2-|-2-2-|-1-1-|-4-4----|
D|-1-1-|-----|-3-3-|-----|-3-3-|-0---|-1-1-|-----|-3-3----|
A|-----|-----|-----|-----|-4-4-|-----|-----|-----|--------|
E|-----|-0-0-|-----|-2-2-|-----|-----|-----|-0-0-|--------|

Bm
E
A
E|-10-9-7-|-4-/9-|-5-----|
B|-7------|-5----|-2-----|
G|-7------|-4----|-2-----|
D|--------|------|-2-----|
A|--------|------|-------|
E|-7------|------|-------|
----------------- Acordes ----------------A = X 0 2 2 2 0
Bm = X 2 4 4 3 2
C#7 = X 4 3 4 2 X
C#m9 = X 4 6 8 5 4
D7+ = X X 0 2 2 2
E = 0 2 2 1 0 0
E4 = 0 2 2 2 0 0
Ebdim = undefined
F = 1 3 3 2 1 1
F#m = 2 4 4 2 2 2
F7M = 1 X 2 2 1 X
F7M/A = 5 X 3 5 5 X
Fdim = undefined