Você está na página 1de 3

Intro: Cm Ab Bb (2x)

Cm
Vocs esperam uma interveno divina
Ab
Mas no sabem que o tempo agora
Bb
est contra vocs
Cm
Vocs se perdem no meio de tanto medo
Ab
De no conseguir dinheiro pra
Bb
comprar sem se vender
Cm
E vocs armam seus esquemas ilusrios
Ab
Continuam s fingindo que o mundo
Bb
ningum fez
Cm
Mas acontece que tudo tem comeo
Ab
Se comea um dia acaba, eu tenho pena
Bb
de vocs
Pr-solo 1
Cm Cm

Bb Cm Cm

Eb (2x)

Solo 1 (Cm
Ab Bb)
E|--------------------------------------------------------------|
B|--------------------------------------------------------------|
G|------3---3-5~--------3---3-5~--------3---3-5~-5s7-5-3-5-3----|
D|-3h5----5--------3h5----5--------3h5----5------------------5~-|
A|--------------------------------------------------------------|
E|--------------------------------------------------------------|
E|-----------------------------------------------------------|
B|-----------------------------------------------------------|
G|------3---3-5-5-5~---------3---3-5~---------3---3-5-5-5-3~-|
D|-3h5----5-------------3h5----5---------3h5----5------------|
A|-----------------------------------------------------------|
E|-----------------------------------------------------------|
Cm
E as ameaas de ataque nuclear
Ab
Bombas de neutrons no foi
Bb
Deus quem fez
Cm
Algum, algum um dia vai se vingar
Ab
Vocs so vermes, pensam
Bb
que so reis
Cm

No quero ser como vocs


Ab
Bb
Eu no preciso mais
Cm
Eu j sei o que tenho que saber
Ab
Bb
Cm Ab Bb
E agora tanto faz
Pr-solo 2
Cm Cm Eb Bb (2x)
Solo 2 (Cm Cm Eb Bb)
E|-----------------------------------------------------------|--------|
B|-----------------------------------------------------------|------0-|
G|-----------------------------------------------------------|--2-3---|
D|-3h5~--3-5~----3---5~--5-3~----3h5~--3-5~-----3---5~--5-3~-|--------|
A|-------------5-----------------------------5---------------|--------|
E|-----------------------------------------------------------|--------|
E|---------------------------------------------------------------------------------|
B|-4-3-4-3-4p3h4-------------------------------------------------------------------|
G|-----------------3-5~-5-----3------------------3~--------------------------------|
D|--------------------------5----5~------3h5~--3-5--------3-5-5--5p3---------------|
A|------------------------------------------------------5--------------------------|
E|---------------------------------------------------------------------------------|
Cm
Trs crianas sem dinheiro e sem moral
Ab
No ouviram a voz suave que
Bb
era uma lgrima
Cm
E se esqueceram de avisar pra todo mundo
Ab
Bb
Ela talvez tivesse nome e era Ftima
Cm
E de repente o vinho virou gua
Ab
Bb
E a ferida no cicatrizou
Cm
E o limpo se sujou
Ab
E no terceiro dia ningum
Bb
Cm Ab Bb
ressuscitou
Cm

Ab Bb (1x enquanto o Dinho cantarola...)

Solo final (Cm Ab Bb)


E|------------------------------------------------------------|
B|------------------------------------------------------------|

G|------3---3-5~--------3---3-5~--------3---3-5~-5s7--7---8-7-|
D|-3h5----5--------3h5----5--------3h5----5-------------8-----|
A|------------------------------------------------------------|
E|------------------------------------------------------------|
E|----------------------------------------------------------3-|
B|----------------------------------------------------------4-|
G|------3---3-5~--------3---3-5~--------3---3-5~-5s7--7-3~--5-|
D|-3h5----5--------3h5----5--------3h5----5-------------------|
A|------------------------------------------------------------|
E|------------------------------------------------------------|