Você está na página 1de 23

Swe ep Pick ing II

Tcnica de Guitarra

Sweep Picking II

Assista a aula completa em:


http://www.cifraclub.tv/v1359

Swe ep Pick ing II

Sumrio
Utilizao do Metrnomo.............................................................................................. 03
Figuras de tempos mais utilizadas para arpejo............................................................ 03
Exerccios.................................................................................................................... 03

Arpejos................................................................................................................................04
Sequncia de Arpejos em Quatro Cordas.................................................................... 04
Sequncia de Arpejos em Cinco Cordas......................................................................08

Misturando Tcnicas....................................................................................................... 11
Exerccios - Palhetada Alternada, Ligados, Sweeo, Slide e Salto de Cordas.............. 11

Mais Arpejos......................................................................................................................14
Sequncia de Arpejos em Seis Cordas........................................................................ 15
Sequncia de Arpejos em Ttrades..............................................................................18

Sugestes de repertrio................................................................................................... 21
Glossrio.............................................................................................................................21
Aulas relacionadas........................................................................................................... 23
Crditos............................................................................................................................... 23

Swe ep Pick ing II

Utilizao do Metrnomo
O Metrnomo uma importante ferramenta para aqueles que estudam msica e desejam
aprimorar e dominar mais os ritmos e as tcnicas. Como essa uma apostila voltada para
guitarristas, resolvi dedicar um pequeno espao do curso para falar um pouco sobre o uso do
metrnomo no estudo do Sweep Picking, pois todos os exerccios da segunda vdeo-aula do curso
sero demonstrados com utilizao do metrnomo.
Nas vdeo-aulas e apostilas sobre Palhetada Alternada e Ligados aqui do Cifra Club vocs j
ouviram falar sobre o metrnomo, j definiram bem para que serve e tambm j utilizaram em
alguns exerccios, como o caso das aulas sobre palhetada alternada e ligados. Sabemos que o
andamento de uma msica determinado pela quantidade de batidas por minuto. O minuto sempre
ser a nossa referncia e quanto mais batidas por minutos maior ser o andamento da msica, e
quanto menos batimentos por minuto, menor ser o andamento. Enfim, o tempo divido dessa
forma e ns podemos subdivid-lo da forma como quisermos. Por exemplo, cada espao de tempo,
antes pr-determinado pela diviso do minuto, podemos subdividir em duas, trs, quatro, cinco, seis
partes e at em mais.
Figuras de Tempos mais Utilizadas Para Arpejos

Na primeira apostila do curso de Sweep Picking ns conhecemos arpejos utilizando trs


cordas, e essa apostila ainda apresentar novas formas e possibilidades de se fazer arpejos.
interessante que voc faa todos os exerccios utilizando um metrnomo, mas antes, ns vamos
relembrar e entender como aplicada a subdiviso do tempo no estudo de arpejos.
Durante toda a apostila, eu recomendo que voc procure criar uma metodologia de
estudo, uma forma de treinamento com regras a se seguir em busca de um avano no estudo
da tcnica. Pra quem no possui nenhuma metodologia de estudo eu sugiro:

Iniciar tocando cada um dos exerccios em um andamento lento, Por exemplo de 60 a


80 BPM.

Depois, dentro do mesmo andamento, aumentar a quantidade de notas por tempo. Ora
duas notas por tempo ou trs, quatro e assim por diante.

Exerccio A:
E|-------X--X--------------X--X----------------------|
B|----X--------X--------X--------X-------------------|
G|-X--------------X--X--------------X----------------|
D|---------------------------------------------------|
A|---------------------------------------------------|
E|---------------------------------------------------|

E|-------X-----------X-----------X-----------X-------|
B|----X-----X-----X-----X-----X-----X-----X-----X----|
G|-X-----------X-----------X-----------X-----------X-|
D|---------------------------------------------------|
A|---------------------------------------------------|
E|---------------------------------------------------|

Swe ep Pick ing II

Exerccio B:
E|-------------------------------5-7-8-10-8-7--------|
B|-------------------------5-7-8--------------10-8-7-|
G|-------------------4-5-7---------------------------|
D|-------------4-5-7---------------------------------|
A|-------3-5-7---------------------------------------|
E|-3-5-7---------------------------------------------|

E|---------------------------------------------------|
B|---------------------------------------------------|
G|-9-7-5---------------------------------------------|
D|-------9-7-5---------------------------------------|
A|-------------9-7-5---------------------------------|
E|-------------------8-7-5---------------------------|

Exerccio C:
E|-----5-8p5-------6-10p6-------6-10p6-------8-12p8--|
B|---6-------6---8--------8---6--------6---8--------8|
G|-5-----------7------------7------------9-----------|
D|---------------------------------------------------|
A|---------------------------------------------------|
E|---------------------------------------------------|



Arpejos
Na apostila anterior ns estudamos vrias sequncias de arpejos utilizando as trs primeiras
cordas da guitarra. Agora ns vamos progredir com esse estudo e vamos tocar arpejos de acordes
em quatro e cinco cordas.
Sequncias de Arpejos em Quatro Cordas

Ns vamos tocar a nota mais grave de cada arpejo na quarta corda. Vamos utilizar os
mesmos shapes j estudados na primeira apostila do curso, porm, vamos adicionar uma, ou mais
notas, que compem o acorde na quarta corda.
Exemplo A:
E|----------12-15p12----------------12-15~-|
B|-------13----------13----------13--------|
G|----12----------------12----12-----------|
D|-14----------------------14--------------|
A|-----------------------------------------|
E|-----------------------------------------|

Swe ep Pick ing II

Exemplo B:
E|-------5-8p5-----------6-10p6------------|
B|-----6-------6-------8--------8--------10|
G|---5-----------5---7------------7----9---|
D|-7---------------8----------------10-----|
A|-----------------------------------------|
E|-----------------------------------------|



E|-8-12p8---------------10-13p10-----------|
B|--------10---------11----------11--------|
G|-----------9----10----------------10-----|
D|-------------12----------------------12--|
A|-----------------------------------------|
E|-----------------------------------------|


Exerccio C:
E|-15p12----------------12-15p12-----------|
B|-------12----------12----------13--------|
G|----------12----12----------------12-----|
D|-------------14----------------------14--|
A|-----------------------------------------|
E|-----------------------------------------|

E|-------12-15p10----------------10-14p10--|
B|----13----------12----------12-----------|
G|-12----------------12----12--------------|
D|----------------------12-----------------|
A|-----------------------------------------|
E|-----------------------------------------|


E|----------------10-----------------------|
B|-10----------10--------------------------|
G|----11----11-----------------------------|
D|-------12--------------------------------|
A|-----------------------------------------|
E|-----------------------------------------|

Exerccio D:
E|----------13-12-------------------10-8---|
B|-------15-------13-------------10------8-|
G|----14-------------12-------10-----------|
D|-15-------------------14-12--------------|
A|-----------------------------------------|
E|-----------------------------------------|

E|-----------------------------------------|
B|-----------------------------------------|
G|-9---------------------------------------|
D|---10------------------------------------|
A|-----------------------------------------|
E|-----------------------------------------|

Swe ep Pick ing II

Exerccio E
E|-12p8----12p8----12p8--------------8-12p8|
B|------10------10------10--------10-------|
G|-------------------------9----9----------|
D|---------------------------10------------|
A|-----------------------------------------|
E|-----------------------------------------|




E|-10p7---10p7---10p7-----------7-10p7-----|
B|------8------8------8-------8------------|
G|----------------------7---7--------------|
D|------------------------9----------------|
A|-----------------------------------------|
E|-----------------------------------------|




E|-8p5---8p5---8p5-----------5-8p5---------|
B|-----6-----6-----6-------6---------------|
G|-------------------5---5-----------------|
D|---------------------7-------------------|
A|-----------------------------------------|
E|-----------------------------------------|




E|-7p4---7p4---7p4-----------4-7p4---------|
B|-----5-----5-----5-------5---------------|
G|-------------------4---4-----------------|
D|---------------------6-------------------|
A|-----------------------------------------|
E|-----------------------------------------|

Exerccio F:
E|-------14-17p14-------------------10-----|
B|----15----------15-------------12--------|
G|-14----------------14-------11-----------|
D|----------------------16-12--------------|
A|-----------------------------------------|
E|-----------------------------------------|


E|-14p10-----------7-10p7---------------9--|
B|-------12------8--------8----------10----|
G|----------11-7------------7------9-------|
D|----------------------------9-11---------|
A|-----------------------------------------|
E|-----------------------------------------|



E|-12p9------------------------------------|
B|------10---------------------------------|
G|---------9-------------------------------|
D|-----------------------------------------|
A|-----------------------------------------|
E|-----------------------------------------|

Swe ep Pick ing II

Exerccio G:
E|-15----------------15-18p15--------------|
B|----15----------15----------15-----------|
G|-------15----15----------------15----15--|
D|----------17----------------------17-----|
A|-----------------------------------------|
E|-----------------------------------------|


E|----15----13----------------13-17p13-----|
B|-15----15----15----------15----------15--|
G|----------------14----14-----------------|
D|-------------------15--------------------|
A|-----------------------------------------|
E|-----------------------------------------|

E|-------------13----9--------------9-12p9-|
B|----------15----15---10--------10--------|
G|-14----14---------------9----9-----------|
D|----15--------------------11-------------|
A|-----------------------------------------|
E|-----------------------------------------|

E|--------------9----10----------------10--|
B|-10--------10---10----11----------11-----|
G|----9----9---------------10----10--------|
D|------11--------------------12-----------|
A|-----------------------------------------|
E|-----------------------------------------|

E|-13p10----------------10-----------------|
B|-------11----------11----11--------------|
G|----------10----10-----------------------|
D|-------------12--------------------------|
A|-----------------------------------------|
E|-----------------------------------------|

Exerccio H:
E|---------8-12p8-------------8-12p8-------|
B|------10--------10-------10--------10----|
G|----9--------------9---9--------------9--|
D|-10------------------9-------------------|
A|-----------------------------------------|
E|-----------------------------------------|



E|--------8-12p8-------------8-12p8--------|
B|-----10--------10-------10--------10-----|
G|---8--------------9---9--------------9---|
D|-8------------------7--------------------|
A|-----------------------------------------|
E|-----------------------------------------|


Swe ep Pick ing II

Sequncias de Arpejos em Cinco Cordas

Agora, ns vamos tocar arpejos utilizando cinco cordas da guitarra. Para isso, vamos
acrescentar uma e em outros casos duas notas na corda mais grave.
Exemplo A:
E|----------------12-15p12-----------------|
B|-------------13----------13--------------|
G|----------12----------------12-----------|
D|-------14----------------------14--------|
A|-10h15----------------------------15-----|
E|-----------------------------------------|



E|----------------12-17p12-----------------|
B|-------------13----------13--------------|
G|----------14----------------14-----------|
D|-------14----------------------14--------|
A|-12h15----------------------------15-----|
E|-----------------------------------------|



E|----------------13-17p13-----------------|
B|-------------15----------15--------------|
G|----------14----------------14-----------|
D|-------15----------------------15--------|
A|-12h17----------------------------17-----|
E|-----------------------------------------|



E|----------------10-15p10-----------------|
B|-------------12----------12--------------|
G|----------12----------------12-----------|
D|-------12----------------------12--------|
A|-10h14----------------------------14-----|
E|-----------------------------------------|

Exerccio B:
E|-10p5---5-------------------5-10p5-------|
B|------7---7---------------7--------------|
G|------------7-----------7----------------|
D|--------------7-------7------------------|
A|----------------9-5h9--------------------|
E|-----------------------------------------|



E|-9p6---6-------------------6-9p6---------|
B|-----7---7---------------7---------------|
G|-----------6-----------6-----------------|
D|-------------8-------8-------------------|
A|---------------9-4h9---------------------|
E|-----------------------------------------|

Swe ep Pick ing II

E|-10p7---7---------------------7-10p7-----|
B|------8---8-----------------8------------|
G|------------7-------------7--------------|
D|--------------9---------9----------------|
A|----------------10-5h10------------------|
E|-----------------------------------------|



E|-12p9----9-------------------------9-12p9|
B|------10---10-------------------10-------|
G|--------------9---------------9----------|
D|----------------11---------11------------|
A|-------------------12-7h12---------------|
E|-----------------------------------------|

Exerccio C:
E|------------7-10p7-----------------------|
B|----------8--------8---------------------|
G|--------7------------7-------------------|
D|------9----------------9-----------------|
A|-5h10--------------------10--------------|
E|-----------------------------------------|



E|-----------5-9p5-------------------------|
B|---------7-------7-----------------------|
G|-------7-----------7---------------------|
D|-----7---------------7-------------------|
A|-5h9-------------------9-----------------|
E|-----------------------------------------|



E|------------7-12p7-----------------------|
B|----------8--------8---------------------|
G|--------9------------9-------------------|
D|------9----------------9-----------------|
A|-7h10--------------------10--------------|
E|-----------------------------------------|



E|-------------8-12p8----------------------|
B|-----------8--------8--------------------|
G|---------9------------9------------------|
D|------10----------------10---------------|
A|-7h10----------------------10------------|
E|-----------------------------------------|

Exerccio D:
E|---------------8-7-----------------------|
B|------------10-----8---------------------|
G|---------10----------9-------------------|
D|------10---------------9-----------------|
A|-8h12--------------------10-7------------|
E|-----------------------------------------|

Swe ep Pick ing II

Exerccio E:
E|----------------12-17p12-----------------|
B|-------------13----------13--------------|
G|----------14----------------14-----------|
D|-------14----------------------14--------|
A|-12h15----------------------------15-----|
E|-----------------------------------------|



E|----------------13-17p13-----------------|
B|-------------15----------15--------------|
G|----------14----------------14-----------|
D|-------15----------------------15--------|
A|-12h17----------------------------17-----|
E|-----------------------------------------|



E|----------------10-14p10-----------------|
B|-------------12----------12--------------|
G|----------12----------------12-----------|
D|-------12----------------------12--------|
A|-10h14----------------------------14-----|
E|-----------------------------------------|



E|----------------12-15p12-----------------|
B|-------------13----------13--------------|
G|----------12----------------12-----------|
D|-------14----------------------14--------|
A|-10h15----------------------------15-----|
E|-----------------------------------------|



E|---------------8-13p8--------------------|
B|------------10--------10-----------------|
G|---------10--------------10--------------|
D|------10--------------------10-----------|
A|-8h12--------------------------12--------|
E|-----------------------------------------|



E|------------7-10p7-----------------------|
B|----------9--------9---------------------|
G|--------7------------7-------------------|
D|------9----------------9-----------------|
A|-7h11--------------------11--------------|
E|-----------------------------------------|

Exerccio F:

E|-------------8p5-------------------------|
B|---------5-8-----5-----------------------|
G|-------5-----------5---------------------|
D|-----5---------------7-------------------|
A|-3h7-------------------7-----------------|
E|-----------------------------------------|

10

Swe ep Pick ing II

Exerccio G:
E|-----------5-10p7------------------------|
B|---------7--------8------------------10--|
G|-------7------------7--------------9-----|
D|-----7----------------9---------11-------|
A|-5h9--------------------10-7h12----------|
E|-----------------------------------------|




E|-9-12p9----------------------------------|
B|--------10-------------------------------|
G|-----------9-----------------------------|
D|-------------11--------------------------|
A|----------------12-----------------------|
E|-----------------------------------------|

Exerccio H:
E|----------------12-17p12----------12-17~-|
B|-------------13----------13----13--------|
G|----------14----------------14-----------|
D|-------14--------------------------------|
A|-12h15-----------------------------------|
E|-----------------------------------------|

Misturando Tcnicas
Depois de misturar o Sweep, com a palhetada alternada e os ligados, ns agora vamos
conhecer outras novas duas tcnicas que combinam bastante com o sweep, o Slide e o Salto de
Cordas.
Em nossos primeiros exerccios, o Slide praticamente vai fazer papel de ligar os shapes dos
arpejos. Em outros momentos tambm podemos combin-lo com outras tcnicas como a palhetada
alternada, e Salto de Cordas ser usado para facilitar a execuo de algumas notas.
Exerccio III
Palhetada Alternada, Ligados, Sweep, Slide e Salto de Cordas

Exemplo A:
E|-8p5---------6-10/12p8------------10-13/-|
B|-----6-----8-----------10------11--------|
G|-------5/7----------------9/10-----------|
D|-----------------------------------------|
A|-----------------------------------------|
E|-----------------------------------------|

11

Swe ep Pick ing II

E|-15p12-------------13-17/18--------------|
B|-------13-------15-----------------------|
G|----------12/14--------------------------|
D|-----------------------------------------|
A|-----------------------------------------|
E|-----------------------------------------|

Exemplo B:
E|-8p5-----------5h8p5-----------5---------|
B|-----------------------------------------|
G|-----9p5---5h9-------9p5---5h9-----------|
D|---------7---------------7---------------|
A|-----------------------------------------|
E|-----------------------------------------|

Exemplo C:
E|----------12-17-12----------------12-15--|
B|-------13----------13----------13--------|
G|-12-14----------------14-12-14-----------|
D|-----------------------------------------|
A|-----------------------------------------|
E|-----------------------------------------|

E|-12----------------12-13-12--------------|
B|----13----------13----------13-----------|
G|-------14-12-14----------------14-12-----|
D|-----------------------------------------|
A|-----------------------------------------|
E|-----------------------------------------|

Exemplo D:
E|--------------6-10/11\10p6---------------|
B|------------8--------------8-------------|
G|--------7h8------------------8p7---------|
D|------8--------------------------8-------|
A|-6h10------------------------------10----|
E|-----------------------------------------|





E|----------------8-11/13\11p8-------------|
B|--------------9--------------9-----------|
G|---------8h10------------------10p8------|
D|------10----------------------------10---|
A|-8h11----------------------------------11|
E|-----------------------------------------|

12

Swe ep Pick ing II

Exemplo E:
E|---------------------5-9/10\9p5----------|
B|-------------------7------------7--------|
G|-----------------7----------------7------|
D|-6h7p6---------7--------------------7----|
A|-------9-7-5h9------------------------9-5|
E|-----------------------------------------|

Exemplo F:
E|-13-12-10--------------------------------|
B|----------13-12-10-----------------------|
G|-------------------12-10-9---------------|
D|---------------------------12-10-9-10----|
A|-----------------------------------------|
E|-----------------------------------------|

E|-------------12-15/17\15p12--------------|
B|----------13----------------13-----------|
G|-------12----------------------12--------|
D|-12/14----------------------------14-----|
A|-------------------------------------15--|
E|-----------------------------------------|

Exemplo G:
E|-----------------------------------------|
B|----------------------10-15-10-12-15-----|
G|----------12-14----12--------------------|
D|-------12-------12-----------------------|
A|-10h14-----------------------------------|
E|-----------------------------------------|


E|-15-13-10--------------------------------|
B|----------11----15p11-------13p10--------|
G|-------------10-------------------10-----|
D|----------------------15-12----------10--|
A|-----------------------------------------|
E|-----------------------------------------|



E|-----------------------------------------|
B|-----------------------------------------|
G|-12p11-----------------------------------|
D|-------12--------------------------------|
A|-----------------------------------------|
E|-----------------------------------------|

13

Swe ep Pick ing II

Exemplo H:
E|-12p8-------------------------8-11p8-----|
B|------10-------------------10------------|
G|---------9---------------9-----------11-8|
D|-----------10---------10-----------------|
A|--------------12-7h12--------------------|
E|-----------------------------------------|




E|----8-11p8---------8-10p6----------------|
B|--------------------------8--------------|
G|-11--------11-8-11----------7------------|
D|------------------------------8---------8|
A|--------------------------------10-5h10--|
E|-----------------------------------------|


E|-----6-9p6-------6-9p6-------6-8p4-------|
B|---8-------------------------------6-----|
G|-7---------9-6-9-------9-6-9---------5---|
D|---------------------------------------6-|
A|-----------------------------------------|
E|-----------------------------------------|




E|-------------4-7p4-------4-7p4-------4---|
B|-----------6-----------------------------|
G|---------5---------7-4-7-------7-4-7-----|
D|-------6---------------------------------|
A|-8-3h8-----------------------------------|
E|-----------------------------------------|




E|-10p7---------7-13p10----------10-16p13--|
B|-----------------------------------------|
G|------10-7-10---------13-10-13-----------|
D|-----------------------------------------|
A|-----------------------------------------|
E|-----------------------------------------|



E|----------13-19p16----------16-17~-------|
B|-----------------------------------------|
G|-16-13-16----------19-16-19--------------|
D|-----------------------------------------|
A|-----------------------------------------|
E|-----------------------------------------|

Mais Arpejos
Como vimos, os arpejos de cinco cordas tendem a utilizar duas notas em sua ltima corda, e
com os arpejos de seis cordas tambm no diferente. Isso se d pelo mesmo motivo, a praticidade
na hora de executar e tambm por causa da quantidade de notas a serem tocadas, o que no pode ser
entendido como uma regra.

14

Swe ep Pick ing II

Sequncia de Arpejos em Seis Cordas

Exerccio A:
E|-------------5-8p5----------------------~|
B|-----------5-------5---------------------|
G|---------5-----------5-------------------|
D|-------7---------------7-----------------|
A|-----7-------------------7---------------|
E|-5h8-----------------------8-------------|



E|---------------7-10p7--------------------|
B|-------------8--------8------------------|
G|-----------7------------7----------------|
D|---------9----------------9--------------|
A|------10--------------------10-----------|
E|-7h10--------------------------10--------|

Exerccio B:
E|----------------8-12/15\12p8-------------|
B|--------------8--------------8-----------|
G|------------9------------------9---------|
D|---------10----------------------10------|
A|------10----------------------------10---|
E|-8h12----------------------------------12|

Exerccio C:
E|----------------8-12\10p7----------------|
B|--------------8-----------8--------------|
G|------------9---------------7------------|
D|---------10-------------------9----------|
A|------10------------------------10-------|
E|-8h12------------------------------10-7--|



E|-------------5-8\7p3---------------------|
B|-----------5---------5-------------------|
G|---------5-------------4-----------------|
D|-------7-----------------5---------------|
A|-----7---------------------7-------------|
E|-5h8-------------------------7-3---------|



E|-------------1-5p3-----------------------|
B|-----------1-------3---------------------|
G|---------2-----------4-------------------|
D|-------3---------------5-----------------|
A|-----3-------------------5-----7---------|
E|-1h5-----------------------7-3-----------|

15

Swe ep Pick ing II

Exerccio D:

E|----------------8-11\10p6----------------|
B|--------------8-----------8--------------|
G|------------8---------------7------------|
D|---------10-------------------8----------|
A|------10------------------------10-------|
E|-8h11------------------------------10-6--|



E|-------------4-8p6-----------------------|
B|-----------4-------6---------------------|
G|---------5-----------7-------------------|
D|-------6---------------8-----------------|
A|-----6-------------------8------10-------|
E|-4h8-----------------------10-6----------|

Exerccio E:
E|----------------7-12p8-------------------|
B|--------------8--------8-----------------|
G|------------9------------9---------------|
D|----------9----------------10------------|
A|-----7h10---------------------10---------|
E|-0h7-----------------------------12-8----|



E|-------------------10-14\11p8------------|
B|----------------10------------10---------|
G|-------------11------------------11-8----|
D|----------12--------------------------10-|
A|-------12--------------------------------|
E|-10h14-----------------------------------|



E|-----------------------------------------|
B|-----------------------------------------|
G|-----------------------------------------|
D|-7---------------------------------------|
A|---9-------------------------------------|
E|-----------------------------------------|

Exerccio F:

E|-------------3-8/15p10-------------------|
B|-----------3-----------10----------------|
G|---------5----------------12-------------|
D|-------5---------------------12----------|
A|-----5--------------------------12-------|
E|-3h7-------------------------------15-10-|

16

Swe ep Pick ing II

Exerccio G:
E|-11p8-----------------------------8-11p8-|
B|------8-------------------------8--------|
G|--------8---------------------8----------|
D|----------10---------------10------------|
A|-------------10---------10---------------|
E|----------------11-8h11------------------|



E|-15p11-----------------------------------|
B|-------11----------------------------11--|
G|----------12----------------------12-----|
D|-------------13----------------13--------|
A|----------------13----------13-----------|
E|-------------------15-11h15--------------|



E|-11-15p11-10p6-------------------------6-|
B|---------------6---------------------6---|
G|-----------------7-----------------7-----|
D|-------------------8-------------8-------|
A|---------------------8---------8---------|
E|-----------------------10-6h10-----------|



E|-10p6------------------------------------|
B|-----------------------------------------|
G|-----------------------------------------|
D|-----------------------------------------|
A|-----------------------------------------|
E|-----------------------------------------|

Exerccio H:
E|-------------5-8/12p8--------------------|
B|-----------5----------10-----------------|
G|---------5---------------9---------------|
D|-------7-------------------10------------|
A|-----7------------------------12---------|
E|-5h8-----------------------------12-8----|



E|-------------------12-17/20p17-----------|
B|----------------13-------------17--------|
G|-------------14-------------------17-----|
D|----------14-------------------------19--|
A|----12h15--------------------------------|
E|-12--------------------------------------|



E|-----------------------------------------|
B|-----------------------------------------|
G|-----------------------------------------|
D|-----------------------------------------|
A|-19--------------------------------------|
E|----20-17--------------------------------|

17

Swe ep Pick ing II

Sequncias de Arpejos em Ttrades

Em uma passagem rpida, podemos entender as ttrades como acordes formados por quatro
notas, com um intervalo de teras entre cada uma delas. Pra visualizar melhor, podemos entender as
ttrades como uma sequncia das trades, pois pra form-las, em tese, pegamos as notas que
formam a trade do acorde e ligamos nota que faz intervalo de stima.
O arpejo de ttrades com utilizao do sweep causa um efeito semelhante pois em alguns
momentos podemos tocar duas notas em uma corda, isso explica-se pelo fato da stima estar
prxima a oitava, primeiro grau, que a tnica do acorde.
Nos exemplos a seguir ns vamos trabalhar alguns exerccios e tambm trechos que utilizam
arpejos de ttrades na sua construo. Fiquem atentos aos shapes que estaremos utilizando.
Exemplo A:
E|------------------10-14-10---------------|
B|---------------12----------12------------|
G|---------11-12----------------12-11------|
D|------12----------------------------12---|
A|10h14----------------------------------14|
E|-----------------------------------------|


E|------------------12-15-12---------------|
B|---------------13----------13------------|
G|---------12-14----------------14-12------|
D|------14----------------------------14---|
A|12h15----------------------------------15|
E|-----------------------------------------|

Exemplo B:
E|---------------7-8p7---------------------|
B|-----------5-8-------8-5-----------------|
G|-------4h5---------------5p4-------------|
D|-----5-----------------------5-----------|
A|-3h7---------------------------7---------|
E|-----------------------------------------|





E|----------------8-10p8-------------------|
B|-----------6-10--------10-6--------------|
G|-------5h7------------------7p5----------|
D|-----7--------------------------7--------|
A|-5h8------------------------------8------|
E|-----------------------------------------|

Exemplo C:
E|---------------------8-------------------|
B|----------------8-12---12-8--------------|
G|--------------9-------------9------------|
D|---------9h10-----------------10p9-------|
A|------10---------------------------10----|
E|-8h12---------------------------------12-|

18

Swe ep Pick ing II

E|------------------------10---------------|
B|------------------10-13----13-10---------|
G|---------------10----------------10------|
D|---------10h12----------------------12p10|
A|------12---------------------------------|
E|10h13------------------------------------|



E|-----------------------------------------|
B|-----------------------------------------|
G|-----------------------------------------|
D|-----------------------------------------|
A|-10--------------------------------------|
E|----12-----------------------------------|

Exemplo D:
E|-----------------------------------------|
B|-------------------------------------12--|
G|----------11h12p11----------------12-----|
D|-------12----------12----------12--------|
A|-10h14----------------14-10h14-----------|
E|-----------------------------------------|




E|-10-14/15\14p10--------------------------|
B|----------------12-----------------------|
G|-------------------12p11-----------------|
D|-------------------------12--------------|
A|----------------------------14-10--------|
E|-----------------------------------------|



E|---------------------------5-9/10\9p5----|
B|-------------------------7------------7--|
G|-------5h7p5-----------7-----------------|
D|-----7-------7-------7-------------------|
A|-5h9-----------9-5h9---------------------|
E|-----------------------------------------|

E|-----------------------------------------|
B|-----------------------------------------|
G|-7p5-------------------------------------|
D|-----7-----------------------------------|
A|-------9-5-------------------------------|
E|-----------------------------------------|

Exemplo E:
E|-------------------7---------------------|
B|--------------7-10---10-7----------------|
G|------------8-------------8--------------|
D|--------7h9-----------------9p7----------|
A|------9-------------------------9--------|
E|-7h11-----------------------------11-----|

19

Swe ep Pick ing II

E|--------------7-10/12\10p7---------------|
B|------------8--------------8-------------|
G|----------9------------------9p7---------|
D|--------9------------------------9-------|
A|---7h10----------------------------10----|
E|-7---------------------------------------|



Exemplo F:
E|-------------3-7/10p7--------------------|
B|-----------5----------8------------------|
G|-------4-6--------------9-7--------------|
D|-----5----------------------9------------|
A|-4h7--------------------------10-7-------|
E|-----------------------------------------|

Exemplo G:
E|-------------5-10/13p10------------------|
B|-----------6------------13-10------------|
G|-----2-5/7--------------------10---------|
D|---3-----------------------------12-10---|
A|-5-------------------------------------12|
E|-----------------------------------------|



E|-----------------------------------------|
B|-----------------------------------------|
G|-----------------------------------------|
D|-----------------------------------------|
A|-----------------------------------------|
E|-10--------------------------------------|

Exemplo H:
E|------9-12/14p11-------------------------|
B|---10------------12------12--------------|
G|-9------------------11\9----9\8-11p8-----|
D|-------------------------------------9---|
A|---------------------------------------9-|
E|-----------------------------------------|



E|-----------------------------------------|
B|-----------------------------------------|
G|-----------------------------------------|
D|-11--------------------------------------|
A|-----------------------------------------|
E|-----------------------------------------|

20

Swe ep Pick ing II

Sugesto de Repertrio

Seize The Day (Avenged Sevenfold)


http://www.cifraclub.com.br/avenged-sevenfold/seize-the-day
Tornado Of Souls (Megadeth)
http://www.cifraclub.com.br/megadeth/tornado-of-souls
Top Gear Theme (Ozielzinho)
http://www.cifraclub.com.br/ozielzinho/top-gear/

Glossrio

Sweep Picking: Tcnica utilizada por guitarristas e violonistas que utilizam palheta. A
tcnica consiste em aproveitar o movimento anterior da palhetada, seja pra cima ou pra baixo, e
tocar o primeiro toque da prxima corda (caso no seja o nico) com a mesma direo de palhetada.

Palhetada Alternada: Tcnica que consiste em tocar sempre alternando os movimentos da


palhetada.

Ligados: Tcnica que consiste em produzir mais sons com o esforo dessa mo dando
apenas um ataque na corda. Tcnicamente podemos efetuar o ligado atravs do Hammer-On , do
Pull-Off ou do Tapping.

Frase: Grupos de notas tocadas uma aps a outra e seguidas de pequena pausa; Pequena
melodia criada como parte de uma melodia maior. Aprender a construir frases essencial para para
se criar solos que soem bem estruturados e com sentido musical coerente.

Arpejo: Consiste em tocar as notas de um acorde de forma separada; sucessivamente.


Arpejos no precisam seguir uma ordem exata de execuo das notas do acorde, podem ser
iniciados e terminados em qualquer uma nota que forma o acorde.

Metrnomo:

Aparelho utilizado por msicos para estudo. O Metrnomo marca o


andamento da msica ou de uma sequncia atravs de pulsos regulares e uniformes.

Andamento: Andamento a velocidade prpria da pulsao. O andamento determinado


pela quantidade de pulsos dentro de um espao de tempo padronizado, o minuto. Para determinar o
andamento utilizamos a sigla BPM (Batimentos por Minuto).

21

Swe ep Pick ing II

Nota Mais Grave: a nota de menor frequncia em um acorde. Geralmente ela est na
corda mais grave que tocamos na sequncia.

Nota Fundamental:

a primeira nota de um acorde, aquela que lhe d o nome e a


referncia pra a classificao das demais notas do acorde. A fundamental muitas das vezes no est
indicada como a nota mais grave de um acorde, como o caso dos acordes com inverso.

Tapping: Especificamente uma tcnica executada pela mo direita, que consiste em us-la
para apertar uma nota no brao do instrumento atravs de um tapa, tap, reproduzindo o mesmo
efeito do hammer-on.

Shape: Do ingls: Molde, Frma. Pode ser entendido como fragmento de uma escala ou
algum acorde que padronizado por conter caractersticas especficas; alguma sequncia em suas
notas ou em sua formao.

Sincronismo: Consiste em definir e executar aes distintas simuiltaneamente. Na guitarra


o sincronismo se d por diversos fatores, mecanicamente, atravs dos movimentos das duas mo.

Bends: Tcnica executada pela mo esquerda que consiste em levantar (ou abaixar) a corda
para que seja aumentada a altura da nota em uma determinada casa.

Melodia: a execuo coerente dos sons e do silncio de forma sucessiva, gerando uma
sequncia com identidade prpria.

Slide: Tcnica que consiste em arrastar o dedo de uma determinada casa para outra. O slide
pode ser executado com qualquer dedo de ambas as mos.

Tom: Tom ou tonalidade a nota ou acorde que funciona como referncia em uma msica.
De forma mais aprofundada, Tom o conjunto de acordes e notas ligadas hierarquicamente a uma
nota tnica nas escalas Maior Natural ou Menor harmnica. A tnica possui a funo de resolver ou
concluir a msica, ela a primeira nota da escala e o acorde que a usa como fundamental adquire
estabilidade e pode concluir a msica com sensao de repouso.

Transposio

de Tonalidade: um processo que objetiva modificar altura de uma


sequncia de acordes ou notas, ocasionando em uma nova tonalidade.

Campo Harmnico: Conjunto dos acordes formados a partir de uma mesma escala. O
Campo Harmnico de uma escala nos ajuda a compreender as possibilidades de combinao dos
acordes em uma tonalidade, bem como, permite escolher os acordes em funo de sua relao com
as notas da escala e sua funo neste contexto.
Digitaes: So formas com padres das posies em que devemos colocar os dedos da mo
esquerda para tocar as notas especficas de determinada escala, arpejo ou acorde. No violo ou
22

Swe ep Pick ing II

guitarra, as digitaes se mantm iguais para todas as tonalidades, bastando posicionar corretamente
a nota Tnica da escala para se tocar no tom correto.
Tnica: a primeira nota de uma escala, aquela que define a tonalidade e a referncia para
a classificao das outras notas da escala. Tambm o nome da funo harmnica exercida pelo
acorde de primeiro grau em uma tonalidade qualquer.
Aulas relacionadas
Sweep Picking I
http://www.cifraclub.com.br/tv/videoaulas/teoricas/1275/
Palhetada Alternada I
http://www.cifraclub.com.br/tv/videoaulas/teoricas/883/
Intervalos Teoria Musical
http://www.cifraclub.com.br/tv/videoaulas/teoricas/641/
Formao de acordes I Trades
http://www.cifraclub.com.br/tv/videoaulas/teoricas/680/
Formao de acordes II Ttrades
http://www.cifraclub.com.br/tv/videoaulas/teoricas/681/
Escala Maior Natural
http://www.cifraclub.com.br/tv/videoaulas/teoricas/977/
Campo Harmnico Maior - Trades
http://www.cifraclub.com.br/tv/videoaulas/teoricas/1266/
Campo Harmnico Maior - Ttrades
http://www.cifraclub.com.br/tv/videoaulas/teoricas/1267/
Crditos
Elaborao Vincius Dias
Diagramao Philippe Lobo
Reviso Adriano Ferreira e Philippe Lobo
Textos Vincius Dias
Realizao Cifra Club TV / Studio Sol comunicao digital

Bom Som!

23