Você está na página 1de 2

Zez Di Camargo e Luciano - No Dia Em Que Eu Sa De Casa

Tom: A
Intro: A D E A D E A
E|------------------------------------------------------------------0----|
B|------------------------------------------------------------------2----|
G|------------------------------------------------------------------2----|
D|-12-12-11-9-11-6b-9-9-7-6b-7-12-12-11-9-11-11p9----9p7------------2----|
A|------------------------------------------------11-----9----------0----|
E|---------------------------------------------------------10-12-0--0----|
A
D
No dia em que eu sai de casa minha me me disse: "Filho, vem c...
E
A
Passou a mo em meus cabelos, olhou em meus olhos, comeou falar
A7
D
"Por onde voc for eu sigo com meu pensamento sempre onde estiver
A
E
A
Em minhas oraes eu vou pedir a Deus que ilumine os passos seus
Refro:
D
A
Eu sei que ela nunca compreendeu os meus motivos de sair de l
E
D
Ab
Mas ela sabe que depois que cresce o filho vira passarinho e quer voar
D
A
Eu bem queria continuar ali, mas o destino quis me contrariar
E
D
A
E o olhar de minha me na porta eu deixei chorando a me abenoar
E|------------------------------------------------------------------0----|
B|------------------------------------------------------------------2----|
G|------------------------------------------------------------------2----|
D|-12-12-11-9-11-6b-9-9-7-6b-7-12-12-11-9-11-11p9----9p7------------2----|
A|------------------------------------------------11-----9----------0----|
E|---------------------------------------------------------10-12-0--0----|
A
D
A minha me naquele dia me falou do mundo como ele
E
A
Parece que ela conhecia cada pedra que eu iria por o p
D
E sempre ao lado do meu pai da pequena cidade ela jamais saiu
A
E
A
Ela me disse assim: "Meu filho v com Deus, que esse mundo inteiro seu
Refro:
D
A
Eu sei que ela nunca compreendeu os meus motivos de sair de l
E
D
A
Mas ela sabe que depois que cresce o filho vira passarinho e quer voar
D
A
Eu bem queria continuar ali, mas o destino quis me contrariar
E
D
A
E o olhar de minha me na porta eu deixei chorando a me abenoar
E

E o olhar de minha me na porta eu deixei chorando a me abenoar


E
D
A A7
E o olhar de minha me na porta eu deixei chorando a me abenoar
----------------- Acordes ----------------A = X 0 2 2 2 0
A7 = X 0 2 0 2 0
Ab = 4 3 1 1 1 4
D = X X 0 2 3 2
E = 0 2 2 1 0 0

( A D E A )