Você está na página 1de 7

1426220600843.

648

LegioUrbanandios|CifraClub

ndios
LegioUrbana
Tom: G
(intro)
(violo base)
E|----------------------------------------------------|
B|-----8-----8-----1-----1-----3-----3-----3-----3----|
G|-----0-----0-----0-----0-----0-----0-----0-----0----| (3x)
D|-----9-----9-----5-----5-----4-----4-----4-----4----|
A|-10-----------3-----------5-----------5-------------|
E|-------10-----------3-----------5-----------5-------|
(violo solo)
E|-3---3-3----5--7-----------|
B|-------------------7--5--3-|
G|-4--4-4-4---5--7-----------| (3x)
D|-------------------7--5--4-|
A|---------------------------|
E|---------------------------|
(verso)
(base 2x) Am7 G4/B C D Bm Em

E|---3-2-3---3-2-3---3-2-3---3-2-3----5-3-5---5-3-5---5-3-5---5-3-5-|
B|-1-------1-------1-------1--------3-------3-------3-------3-------|
G|------------------------------------------------------------------|
D|------------------------------------------------------------------|
A|------------------------------------------------------------------|
E|------------------------------------------------------------------|

E|---7-5-7---7-5-7---7-5-7---7-5-7----7-5-7---7-5-7---7-5-7---7-5-7-|
B|-3-------3-------3-------3--------5-------5-------5-------5-------|
G|------------------------------------------------------------------|
D|------------------------------------------------------------------|
A|------------------------------------------------------------------|
E|------------------------------------------------------------------|

http://www.cifraclub.com.br/legiaourbana/indios/imprimir.html

1/7

1426220600906.237

LegioUrbanandios|CifraClub

E|---8-7-8---8-7-8---8-7-8---8-7-8----8-7-8---8-7-8---8-7-8---8-7-8-|
B|-5-------5-------5-------5--------7-------7-------7-------7-------|
G|------------------------------------------------------------------|
D|------------------------------------------------------------------|
A|------------------------------------------------------------------|
E|------------------------------------------------------------------|

E|---10-8-10---10-8-10---10-8-10---10-8-10-|
B|-7---------7---------7---------7---------|
G|-----------------------------------------|
D|-----------------------------------------|
A|-----------------------------------------|
E|-----------------------------------------|

E|---10-8-10---10-8-10---10-8-10---10-8-10-|
B|-8---------8---------8---------8---------|
G|-----------------------------------------|
D|-----------------------------------------|
A|-----------------------------------------|
E|-----------------------------------------|
Am7
G4/B C
Quem me dera, ao menos uma vez,
D
Ter de volta todo ouro que entreguei
Bm
A quem conseguiu me convencer que era prova de amizade
Em
Se algum levasse embora at o que eu no tinha
Am7
G4/B C
Quem me dera, ao menos uma vez,
D
Esquecer que acreditei que era por brincadeira
Bm
Que se cortava sempre um pano-de-cho
Em
De linho nobre e pura seda.
Am7
G4/B C
Quem me dera, ao menos uma vez,

http://www.cifraclub.com.br/legiaourbana/indios/imprimir.html

2/7

1426220600938.337

LegioUrbanandios|CifraClub

D
Explicar o que ningum consegue entender:
Bm
Em
Que o que aconteceu ainda est por vir e o futuro no mais como era antigamente.
Am7
G4/B C
Quem me dera, ao menos uma vez,
D
Provar que quem tem mais do que precisa ter
Bm
Quase sempre se convence que no tem o bastante
Em
E fala demais por no ter nada a dizer
Am7
Quem me dera, ao menos uma vez,
D
Que o mais simples fosse visto como o mais importante,
Bm
Mas nos deram espelhos
Em
E vimos um mundo doente.
Am7
G4/B C
Quem me dera, ao menos uma vez,
D
Entender como um s Deus ao mesmo tempo trs
Bm
E esse mesmo Deus foi morto por vocs
Em
s maldade ento, deixar um Deus to triste
C

Bm
Am
D/F#
Eu quis o perigo e at sangrei sozinho

G
D/F#
Em
Entenda, assim pude trazer voc de volta pra mim,
C
Quando descobri que sempre s voc
F
G
D/F#
que me entende do inicio ao fim
Em
C
D
E s voc que tem a cura para o meu vcio de insistir nessa saudade que eu sinto
F

G
De tudo que eu ainda no vi...

(verso)
(base 2x) Am7 G4/B C D Bm Em

http://www.cifraclub.com.br/legiaourbana/indios/imprimir.html

3/7

1426220600963.198

LegioUrbanandios|CifraClub

E|---3-2-3---3-2-3---3-2-3---3-2-3----5-3-5---5-3-5---5-3-5---5-3-5-|
B|-1-------1-------1-------1--------3-------3-------3-------3-------|
G|------------------------------------------------------------------|
D|------------------------------------------------------------------|
A|------------------------------------------------------------------|
E|------------------------------------------------------------------|

E|---7-5-7---7-5-7---7-5-7---7-5-7----7-5-7---7-5-7---7-5-7---7-5-7-|
B|-3-------3-------3-------3--------5-------5-------5-------5-------|
G|------------------------------------------------------------------|
D|------------------------------------------------------------------|
A|------------------------------------------------------------------|
E|------------------------------------------------------------------|

E|---8-7-8---8-7-8---8-7-8---8-7-8----8-7-8---8-7-8---8-7-8---8-7-8-|
B|-5-------5-------5-------5--------7-------7-------7-------7-------|
G|------------------------------------------------------------------|
D|------------------------------------------------------------------|
A|------------------------------------------------------------------|
E|------------------------------------------------------------------|

E|---10-8-10---10-8-10---10-8-10---10-8-10-|
B|-7---------7---------7---------7---------|
G|-----------------------------------------|
D|-----------------------------------------|
A|-----------------------------------------|
E|-----------------------------------------|

E|---10-8-10---10-8-10---10-8-10---10-8-10-|
B|-8---------8---------8---------8---------|
G|-----------------------------------------|
D|-----------------------------------------|
A|-----------------------------------------|
E|-----------------------------------------|

Am7
G4/B C
Quem me dera, ao menos uma vez,
D
Acreditar por um instante em tudo que existe
Bm
E acreditar que o mundo perfeito
Em
E que todas as pessoas so felizes
Am7

G4/B

http://www.cifraclub.com.br/legiaourbana/indios/imprimir.html

4/7

1426220600980.003

LegioUrbanandios|CifraClub

Fazer com que o mundo saiba que seu nome


Bm
Est em tudo

e mesmo assim

Em
Ningum lhe diz ao menos obrigado.
Am7
G4/B C
Quem me dera, ao menos uma vez,
D
Bm
Como a mais bela tribo, dos mais belos ndios,
Em
No ser atacado por ser inocente.
C

Bm
Am
D/F#
Eu quis o perigo e at sangrei sozinho

G
D/F#
Em
Entenda, assim pude trazer voc de volta pra mim,
C
Quando descobri que sempre s voc
F
G
D/F#
que me entende do inicio ao fim
Em
C
D
E s voc que tem a cura para o meu vcio de insistir nessa saudade que eu sinto
F

G
De tudo que eu ainda no vi...

C
F
Nos deram espelhos e vimos um mundo doente
G
Tentei chorar e no consegui.
(solo final)
G

D/F#

E|----------------------------------------------------------------------------|
B|------12--------10---------8-------7--------5------3---------5------8-------|
G|----------0--------0----------0-------0--------0------0--------0------0-----|
D|-12----------12---------9--------7--------5-------4------4/5----5/9---------|
A|----------------------------------------------------------------------------|
E|----------------------------------------------------------------------------|
G

D/F#

E|--------------------------------------------------------------2-2--2-2------|
B|------8-------7----------5--------3---------1-------1---------3-3--2-2------|
G|----------0------0----------0--------0--------0-------0-------2-2--0-0------|
D|-9----------7----------5-------4--------2---------0-----------0-0--0-0------|
A|--------------------------------------------------------------0-0--2-2------|
E|--------------------------------------------------------------0-0--3-3------|

http://www.cifraclub.com.br/legiaourbana/indios/imprimir.html

5/7

1426220601000.856

LegioUrbanandios|CifraClub

G
D/F# G
E|--------------------------------------------------------------2-2--2-2---3--|
B|------8-------7----------5--------3---------1-------0---------3-3--2-2------|
G|----------0------0----------0--------0--------0-------0-------2-2--0-0------|
D|-9----------7----------5-------4--------2---------0-----------0-0--0-0------|
A|--------------------------------------------------------------0-0--2-2------|
E|--------------------------------------------------------------0-0--3-3------|

Am

Am7

Bm

Em

G4/B

http://www.cifraclub.com.br/legiaourbana/indios/imprimir.html

D/F#

6/7

1426220602453.408

http://www.cifraclub.com.br/legiaourbana/indios/imprimir.html

LegioUrbanandios|CifraClub

7/7