Você está na página 1de 2

A Resposta - Fresno

Compositor: Paraba
Tom: C
(intro) C5
Am9
Te perdoar
F
Dm
no vai ser o bastante pra me ver voltar (depois do que eu sofri)
Am9
Te perdoar
F
No vai ser num instante que eu vou mudar
Dm
Enxugue o sangue dos meus olhos!
Am

F
Voc falou que dentre ns dois o melhor sempre fui eu
D5
Am
Voc faltou com a sua palavra ao mentir pra mim
F
Eu percebi que voc era humana como todos ns
D5
Dm
E eu recebi em dobro tudo o que um dia eu fiz pra ti
F
G
G7
E hoje eu estou tentando ver se um dia eu vou aceitar...
(refro)
(solo 4x) Am F
E|-0-0-0-1-3-3--1-0--------0--0-0-0-1-3-3-1-0----1-3-0--0-0-0-1-3-3-1-0--------0
---|
B|------------------1----1--------------------1-------------------------1----1----|
G|---------------------2---------------------------------------------------2------|
D|--------------------------------------------------------------------------------|
A|--------------------------------------------------------------------------------|
E|--------------------------------------------------------------------------------|
E|-8--7-3-0------------------|
B|-10-8-5-1------------------|
G|--------2------------------|
D|--------2----7-10----------|
A|--------0--7-------8-7-3---|
E|---------------------------|
C5
C
Te perdoar
C/E
F
"Dormir com a certeza de que eu vou sonhar"
C
Te perdoar

C/E
F
"Mais uma chance para eu te demonstrar"
Am
Te perdoar
G
C
no a soluo pra todos os problemas que existem entre ns!
Am
Te perdoar
G
C
voltar a ter boas memrias ao ouvir a tua voz
( C5 )