Você está na página 1de 2

Presente De Um Beija-Flor - Natiruts

Tom: F#
(intro) Abm7 C#7 Bb7 D#m7
|9h11-9----------------------------------------|
|------9--7-9-7-9-7-9--7-9--7-9--7-9-9/11------|
|----------------------------------------------|
|----------------------------------------------|
|----------------------------------------------|
|----------------------------------------------|

|9h11-9--------------------------------------------|
|------9--7-9-7-9-7-9--9h11-9--9h11-11-9-9-7h9-7---|
|--------------------------------------------------|
|--------------------------------------------------|
|--------------------------------------------------|
|--------------------------------------------------|

|-----9----------------------------------------|
|9h11---9--7-9-7-9-7-9--7-9--7-9--7-9-9/11-----|
|----------------------------------------------|
|----------------------------------------------|
|----------------------------------------------|
|----------------------------------------------|

|-----9-----------------------------------------------|
|9h11---9--7-9-7-9-7-9--9h11-9--9h11-11-11-9-9-7h9-7--|
|-----------------------------------------------------|
|-----------------------------------------------------|
|-----------------------------------------------------|
|-----------------------------------------------------|
(refro)
Abm
C#7
O beija-flor que trouxe meu amor
Bbm
D#m7
Voou e foi embora
Abm
C#7
Olha s como lindo meu amor
Bbm
D#7
Estou feliz agora
Abm
C#7
Bbm
D#m7
Veja s a nvoa branca que sai de trs do bambuzau
Abm
C#7
Bbm
D#m7
Ser que ela me faz bem
ou ser que me faz mal
Abm
C#7
Bbm
D#m7
Eu vou surfar no cu azul de nuvens doidas
da capital do meu pas
Abm
C#7
Bbm
D#m7
Para ver se esqueo da pobreza e violncia, que deixa o meu povo infeliz

(repete Refro)
Abm
C#7
Bbm
D#m7
E a menina que um dia por acaso veio me dizer
Abm
C#7
Bbm
D#m7
Que no gostava de meninos to largados, Que tocam reggae e MPB
Abm
C#7
Bbm
D#m7
Mas isso coisa to banal, Perto da beleza do planalto central
Abm
C#7
Bbm
D#m7
E das pessoas que fazem do cerrado, O habitat quase ideal
(repete refro)
Abm
C#7
Bbm
D#m7
Agradeo por estar aqui, manifestar a emoo
Abm
C#7
Bbm
D#m7
E colocar minhas idias sentimentos em forma de cano
Abm
C#7
Bbm
D#m7
Agradeo por poder cantar e ver voc ouvir
Abm
C#7
Bbm
D#m7
E tentar entender essa mensagem, Que eu quero transmitir
(repete refro)
Abm
C#7
Bbm
D#m7
Fim de ano eu vou me embora de Braslia, Que pra eu ver o mar
Abm
C#7
Bbm
D#m7
Mas diz pra me l pro final de fevereiro, que eu vou voltar
Abm
C#7
Bbm
D#m7
Que pra surfar no cu azul de nuvens doidas, Da capital do meu pas
Abm
C#7
Bbm
D#m7
Pra ver se esqueo da pobreza e violncia, Que deixa o meu povo infeliz