Você está na página 1de 2

Victor e Leo

Fada
Violo: Principal

2.394.341 exibies
Tom: A (com acordes na forma de G)Capotraste na 2 casa
(usar capotraste na 2 casa)
(intro 2x) G Em
(primeira parte)
G
Em G
Em
Fada, fada querida, dona da minha vida
D
Em D
Voc se foi, levou meu calor, voc se foi, mas no me
Em D
levou...
G
Em G
Em
Lua, lua de encanto, oua pra quem eu canto
D
Em
D
Em D
Ela levou minha magia, mas ela minha alegria
(pr-refro)
C
D
G
Vejo uma luz, uma estrela brilhar, sinto um cheiro de
Em
perfume no ar
C
D
C
Vejo minha fada e sua vara de condo, tocando meu
D G
corao
(refro)
G
Em
Madrugada de amor que no vai acabar
G
Em
Se estou sonhando, no quero mais acordar
C
D
G D
Minha histria linda, meu conto de amor
G
Em
Algo aqui me diz que essa paixo no em vo
G
Em
O meu sentimento bem mais que uma emoo
C
D
C D G
Eu espero o tempo que for, minha fada do amor
(solo)
(1 parte)
|------5---5------5/7--7/9---5---|
|--5/7---7----5/7------9/10--7---|
|--------------------------------|
|--------------------------------|

|--------------------------------|
|--------------------------------|
(2 parte)
|---9--9--9--9/10--10/12--10--9--|
|--10-10-10-10/12--12/14--12-10--|
|--------------------------------|
|--------------------------------|
|--------------------------------|
|--------------------------------|
(3 parte)
|--17-17-17-17--16-16-16-16------|
|--19-19-19-19--17-17-17-17------|
|--------------------------------|
|--------------------------------|
|--------------------------------|
|--------------------------------|
(4 parte)
|------9---7---5-------------------|
|-----------------2-3-5------------|
|--7/9---7---6---------------------|
|-------------------------7-6-2-4--|
|-----------------------5----------|
|----------------------------------|
C
"Vejo uma luz..."
(refro 2x)