Você está na página 1de 16

Guns N' Roses - Sweet Child O' Mine

Introduo: D C G
(Guitarra 1)
E|-------------15----14----------------15----14-------|
B|----15----------------------15----------------------|
G|-------14-12----14----14-------14-12----14----14----|
D|-12----------------------12-------------------------|
A|----------------------------------------------------|
E|----------------------------------------------------|
E|-------------15----14----------------15----14-------|
B|----15----------------------15----------------------|
G|-------14-12----14----14-------14-12----14----14----|
D|-14----------------------14-------------------------|
A|----------------------------------------------------|
E|----------------------------------------------------|
E|-------------15----14----------------15----14-------|
B|----15----------------------15----------------------|
G|-12----14-12----14----14-12----14-12----14----14----|
D|----------------------------------------------------|
A|----------------------------------------------------|
E|----------------------------------------------------|
E|-------------15----14----------------15----14-------|
B|----15----------------------15----------------------|
G|-------14-12----14----14-------14-12----14----14----|
D|-12----------------------12-------------------------|
A|----------------------------------------------------|
E|----------------------------------------------------|
E|-------------15----14----------------15----14-------|
B|----15----------------------15----------------------|
G|-------14-12----14----14-------14-12----14----14----|
D|-12----------------------12-------------------------|
A|----------------------------------------------------|
E|----------------------------------------------------|
E|-------------15----14----------------15----14-------|
B|----15----------------------15----------------------|
G|-------14-12----14----14-------14-12----14----14----|
D|-14----------------------14-------------------------|
A|----------------------------------------------------|
E|----------------------------------------------------|
E|-------------15----14----------------15----14-------|
B|----15----------------------15----------------------|
G|-12----14-12----14----14-12----14-12----14----14----|
D|----------------------------------------------------|
A|----------------------------------------------------|

E|----------------------------------------------------|
E|-------------15----14----------------15----14-------|
B|----15----------------------15----------------------|
G|-------14-12----14----14-------14-12----14----14----|
D|-12----------------------12-------------------------|
A|----------------------------------------------------|
E|----------------------------------------------------|
E|-------------15----14----------------15----14-------|
B|----15----------------------15----------------------|
G|-------14-12----14----14-------14-12----14----14----|
D|-12----------------------12-------------------------|
A|----------------------------------------------------|
E|----------------------------------------------------|
E|-------------15----14----------------15----14-------|
B|----15----------------------15----------------------|
G|-------14-12----14----14-------14-12----14----14----|
D|-14----------------------14-------------------------|
A|----------------------------------------------------|
E|----------------------------------------------------|
E|-------------15----14----------------15----14-------|
B|----15----------------------15----------------------|
G|-12----14-12----14----14-12----14-12----14----14----|
D|----------------------------------------------------|
A|----------------------------------------------------|
E|----------------------------------------------------|
E|-12----------12----14----15----14----12-------------|
B|-------15----------------------------------15-------|
G|----14----14----14----14----14----14----14----14----|
D|----------------------------------------------------|
A|----------------------------------------------------|
E|----------------------------------------------------|
E|----------------------------------------------------|
B|-1513----------------------------------------------|
G|-1412----------------------------------------------|
D|----------------------------------------------------|
A|----------------------------------------------------|
E|----------------------------------------------------|
(Guitarra 2)
D
P.M. . . . . . .
E|-2-2-2-2-2-2-2-2--------------------------|
B|-3-3-3-3-3-3-3-3--------------------------|
G|-2-2-2-2-2-2-2-2--------------------------|
D|-0-0-0-0-0-0-0-0--------------------------|

A|------------------------------------------|
E|------------------------------------------|
C
G
E|-2----3p2-----------0-------------------3-|
B|-3--------3----1----1---3p1---1---------3-|
G|-2--------2----0----0-------0------0----0-|
D|-0--------0----2-------------------0------|
A|---------------3--3----------------2------|
E|-----------------------------------3--3---|
D
P.M . . . . . .
E|-----------------3p2---2------------------|
B|-3-3-3-3-3-3-3-3-3-----3------------------|
G|-2-2-2-2-2-2-2-2-2---2--------------------|
D|-0-0-0-0-0-0-0-0-0---0--------------------|
A|------------------------------------------|
E|------------------------------------------|

Primeira Parte:
(Guitarra 1)
D
C
G
E|-10----8---10p8-------3----3---3----------|
B|-10----8---------8----3------3------------|
G|-11----9--------------3-------------------|
D|-12----10-------------0-------------------|
A|----------------------2-------------------|
E|----------------------3-------------------|
D
E|-------2----3p2---2-----------------------|
B|-----3------3-----3-----------------------|
G|---2--------2-----------------------------|
D|-0--------------0-------------------------|
A|------------------------------------------|
E|------------------------------------------|
D
She's got a smile
That it seems to me
C
Reminds me of childhood memories
G
Where everything was as fresh
D
As the bright blue sky

D
E|-------0------2------2-3-2-0--------------|
B|---3------3------3-----------3------------|
G|-----2------2------2----------------------|
D|-0----------------------------------------|
A|------------------------------------------|
E|------------------------------------------|
C
E|--------0------3------3-------------------|
B|----3------3------3------3---3------------|
G|------0------0------0------0--------------|
D|------------------------------------------|
A|-3----------------------------------------|
E|------------------------------------------|
G
E|----------------0-------------------------|
B|-----3-----3------3---3----3--------------|
G|--------------0-----0----0---0------------|
D|------------------------------------------|
A|-0h2---0h2--------------------------------|
E|------------------------------------------|
D
E|-------0-2---3-3-3-2-0-2------------------|
B|-----3-------3-3-3-3-3-3------------------|
G|---2-------------------2------------------|
D|-0---------------------0------------------|
A|------------------------------------------|
E|------------------------------------------|
D
Now and then
When I see her face
C
She takes me away to that special place
G
And if I stare too long
D
I'd probably break down and cry
Primeiro Refro:
(Guitarra 1)
E|----------------------------------1312----10-------|
B|----14-------15----14-------13----------------------|
G|-------14-------14----14-------12-------12----12----|
D|-11-------14-------------10-------------------------|
A|----------------------------------------------------|
E|----------------------------------------------------|

E|-------------15----14----------------15----14-------|
B|----15----------------------15----------------------|
G|-------14-12----14----14-------14-12----14----14----|
D|-12----------------------12-------------------------|
A|----------------------------------------------------|
E|----------------------------------------------------|
E|----------------------------------1312----10-------|
B|----14-------15----14-------13----------------------|
G|-------14-------14----14-------12-------12----12----|
D|-11-------14-------------10-------------------------|
A|----------------------------------------------------|
E|----------------------------------------------------|
E|----------------------------------------------------|
B|----15~---------------------------------------------|
G|----14~---------------------------------------------|
D|-12-------------------------------------------------|
A|----------------------------------------------------|
E|----------------------------------------------------|
A5
B5 C5
D5
Oh Oh
Oh, Sweet child o' mine
A5
B5 C5
D5
Oh Oh Oh
Oh, Sweet love of mine
Riff 1: D C G D
E|----------------------------------------------------|
B|----------------------------------------------------|
G|-14p12--11----14p12--11----14p12--------14p12-------|
D|----------------------------------14-----------14---|
A|----------------------------------------------------|
E|----------------------------------------------------|
E|----------------------------------------------------|
B|--------------------------15b-b17r15----------------|
G|-14p12----b16r14p12-14b16---------------------------|
D|-------------------------------------14b16r---------|
A|----------------------------------------------------|
E|----------------------------------------------------|

Segunda Parte:
D
C
G
E|-10----8---10p8-------3----3-----3--------|
B|-10----8--------10----3------3------3---3-|
G|-11----9--------------3--------0------0---|
D|-12----10-------------0-------------------|
A|----------------------2-------------------|

E|----------------------3-------------------|
D
E|-------2----3p2---2-----------------------|
B|-----3------3-----3-----------------------|
G|---2--------2-----------------------------|
D|-0--------------0-------------------------|
A|------------------------------------------|
E|------------------------------------------|
D
She's got eyes
Of the bluest skies
C
As if they thought of rain
G
I hate to look into those eyes
D
And see an ounce of pain
D
E|---------0-----2---------3-2-0------------|
B|---3-------3-----3-----3-------3----------|
G|-----2-------2-----2----------------------|
D|-0-----0-------------0--------------------|
A|------------------------------------------|
E|------------------------------------------|
C
E|--------0------3------3-------------------|
B|----3------3------3------3---3------------|
G|------0------0------0------0--------------|
D|------------------------------------------|
A|-3----------------------------------------|
E|------------------------------------------|
G
E|----------------0-------------------------|
B|-----3-----3------3---3----3--------------|
G|--------------0-----0----0---0------------|
D|------------------------------------------|
A|-0h2---0h2--------------------------------|
E|------------------------------------------|
D
E|-------0-2---3-3-3-2-0-2------------------|
B|-----3-------3-3-3-3-3-3------------------|
G|---2-------------------2------------------|
D|-0---------------------0------------------|
A|------------------------------------------|
E|------------------------------------------|

D
Her hair reminds me of a warm safe place
C
Where as a child I'd hide
G
And pray for the thunder
And the rain
D
To quietly pass me by
Segundo Refro:
A5
B5 C5
D5
Oh Oh
Oh, Sweet child o' mine
A5
B5 C5
D5
Oh Oh Oh
Oh, Sweet love of mine
Riff 2: D C G D
D C G D
E|----------------------------------------------------|
B|----------------------------------------------------|
G|-14p12--11----14p12--11----14p12--------14p12-------|
D|----------------------------------14-----------14---|
A|----------------------------------------------------|
E|----------------------------------------------------|
E|----------------------------------------------------|
B|--------------------------------------15------------|
G|-14p12----14p12----b12r11----11b12-------11b12r11~~-|
D|--------------------------12------------------------|
A|----------------------------------------------------|
E|----------------------------------------------------|
E|----------------------------------------------------|
B|----------------------------------15--15p13--15b17--|
G|-x-14p12--11---x-14p12--11-14b16--------------------|
D|----------------------------------------------------|
A|----------------------------------------------------|
E|----------------------------------------------------|
E|----------------------------------------------------|
B|-b17-b17r15-1513--b13r12---------------------------|
G|--------------------------12------------------------|
D|-----------------------------12~--------------------|
A|----------------------------------------------------|
E|----------------------------------------------------|
E|-------------------------------------17-------------|
B|------------------15-15b17r15--17b19----------------|
G|-b15r14p12-14b16------------------------------------|
D|----------------------------------------------------|

A|----------------------------------------------------|
E|----------------------------------------------------|

Terceiro Refro:
A5
Oh
A5
Oh
A5
Oh
A5
Uh

B5 C5
Oh,
B5 C5
Oh Oh
Oh,
B5 C5
Oh Oh
Oh,
B5 C5
Uh Uh
Uh,
Oh Oh

D5
Sweet child o' mine
D5
Sweet love of mine
D5
Sweet child o' mine
D5 D#5
Sweet love of mine

A5
B5 C5
D5
E|------------------------------------------|
B|------------------------------------------|
G|-2----2------5----5---5---7---------------|
D|-2----2--2-4-5----5---5---7---------------|
A|-0--x-0--0-2-3--x-3---3---5---------------|
E|------------------------------------------|
E|-3-3-3--2---------------------------------|
B|-3-3-3--3--3------------------------------|
G|-2-2-2--2--2--2--0------------------------|
D|--------------------4--0------------------|
A|------------------------------------------|
E|------------------------------------------|
A5
B5 C5
D5
E|------------------------------------------|
B|------------------------------------------|
G|-2----2------5----5---5---7---------------|
D|-2----2--2-4-5----5---5---7---------------|
A|-0--x-0--0-2-3--x-3---3---5---------------|
E|------------------------------------------|
E|------------------------------------------|
B|-7--7--7--7--7----------------------------|
G|-7--7--7--7--7----------------------------|
D|-7--7--7--7--7----------------------------|
A|------------------------------------------|
E|----------------10-----------------------|
A5
B5 C5
D5
E|------------------------------------------|
B|------------------------------------------|
G|-2----2------5----5---5---7---------------|
D|-2----2--2-4-5----5---5---7---------------|
A|-0--x-0--0-2-3--x-3---3---5---------------|
E|------------------------------------------|

E|------------------------------------------|
B|-7b8r7------------------------------------|
G|-------7----------------------------------|
D|---------754----------------------------|
A|---------------5-------------------------|
E|------------------------------------------|
A5
B5 C5
E|------------------------------------------|
B|------------------------------------------|
G|-2----2------5----5---5-------------------|
D|-2----2--2-4-5----5---5-------------------|
A|-0--x-0--0-2-3--x-3---3-------------------|
E|------------------------------------------|

D5
D#5
E|------------------------------------------|
B|------------------------------------------|
G|------------------------------------------|
D|-7-7-7-7-7-7-7-7-7-7-7-7-7--8-------------|
A|-5-5-5-5-5-5-5-5-5-5-5-5-5--6-------------|
E|------------------------------------------|

Solo Principal: E5 C5 B5 A5 ( G F# ) (3x)


E5 C5 B5 A5
E5 G5 A5 C5 D5 (4x)
(Parte 1)
E|-17b19~~--15-14h15p14-------15-14~h15p14------------|
B|----------------------17~----------------17p16------|
G|----------------------------------------------------|
D|----------------------------------------------------|
A|----------------------------------------------------|
E|----------------------------------------------------|
E|-----14---------------------------------------------|
B|-17------b17r15--12---------------------------------|
G|--------------------b16r14--12-11h12p11-------------|
D|----------------------------------------14~---14~---|
A|----------------------------------------------------|
E|----------------------------------------------------|
E|----------------------------------------------------|
B|----------13-12~h13p12-------13b15--13-12-12~-------|
G|-11-12-14--------------14~--------------------------|
D|----------------------------------------------------|
A|----------------------------------------------------|
E|----------------------------------------------------|
E|--------------15b17r15~-----------------------------|

B|-12h13p12-------------------------------------------|
G|-----------14---------------------------------------|
D|----------------------------------------------------|
A|----------------------------------------------------|
E|----------------------------------------------------|
(Parte 2)
E|----------------------------------------------------|
B|----------------------------------------------------|
G|-11h12p11~---------11h12p11~------------------------|
D|-----------14-14~------------14-14~-13b14--13--14/16|
A|----------------------------------------------------|
E|----------------------------------------------------|
E|----------------------------------------------------|
B|----------------------------------------------------|
G|-11h12p11~------------------------------------------|
D|------------14-------------13--14~------------------|
A|----------------14b16--14---------------------------|
E|----------------------------------------------------|
E|----------------------------------------------------|
B|----------------------------------------------------|
G|-11h12p11b------------------------------------------|
D|------------14--13b14--13~-14/16~-------------------|
A|----------------------------------------------------|
E|----------------------------------------------------|
(Parte 3)
E|-----------------------------------------------12/14|
B|-----------------------------13----16----13-16------|
G|-------11h12p11----11-14/16-----16----16------------|
D|-13-14----------14----------------------------------|
A|----------------------------------------------------|
E|----------------------------------------------------|
E|-------14h15----14-15-14h15p1412----14----12h14p12-|
B|-16-17-------17-------------------15----15----------|
G|----------------------------------------------------|
D|----------------------------------------------------|
A|----------------------------------------------------|
E|----------------------------------------------------|
E|----12----------------------------------------------|
B|-15----15b17r15p12-15b17----15b17~---15b17~---------|
G|----------------------------------------------------|
D|----------------------------------------------------|
A|----------------------------------------------------|
E|----------------------------------------------------|

E|----------------------------------------------------|
B|-15b17r15p12----15b17~---15b17~---15b17~------------|
G|-------------14-------------------------------------|
D|----------------------------------------------------|
A|----------------------------------------------------|
E|----------------------------------------------------|
E|-------------------------------------------15-------|
B|-15b17r15p12----17b19----17b19----17b19----17b19----|
G|-------------14-------------------------------------|
D|----------------------------------------------------|
A|----------------------------------------------------|
E|----------------------------------------------------|
E|----------15----------------------------------------|
B|-17b19-------17b19~---17b19r17p15-17~---------------|
G|----------------------------------------------------|
D|----------------------------------------------------|
A|----------------------------------------------------|
E|----------------------------------------------------|
(Parte 4)
E|----------12----------------------------------------|
B|-15b17-------15-12----------------------------------|
G|-------------------b16r14p12-14-12-14~---12-14b16---|
D|----------------------------------------------------|
A|----------------------------------------------------|
E|----------------------------------------------------|
E|-----------------15--------15--------15--------15---|
B|-----------------15--------15--------15--------15---|
G|-12-14-12-14b16-----14b16-----14b16-----14b16-------|
D|----------------------------------------------------|
A|----------------------------------------------------|
E|----------------------------------------------------|
E|--------15------------------------------------------|
B|--------15------------------------------------------|
G|-14b16-----14b16r14p12----12h14p12-x-x--------------|
D|-----------------------14----------x-x--------------|
A|----------------------------------------------------|
E|----------------------------------------------------|
(Parte 5)
E|----------------------------------------------------|
B|----------------------------------------------------|
G|-12b--------------x-x-12h14p12----12b---------------|
D|------14p12p14~---x-x----------14-------------------|
A|----------------------------------------------------|

E|----------------------------------------------------|
E|----------------------------------------------------|
B|----------------------------------------------------|
G|-------------x-x-12h14p12----12-12-------14-14-12-14|
D|-14p12p14~---x-x----------14-------14-12------------|
A|----------------------------------------------------|
E|----------------------------------------------------|
E|-------------------------12-12-------15-15-12--14---|
B|-12-12-------15-15-12-15-------15-12----------------|
G|-------14-12----------------------------------------|
D|----------------------------------------------------|
A|----------------------------------------------------|
E|----------------------------------------------------|
(Parte 6)
E|-15--14--14h15p14p12---------------12---------------|
B|---------------------15p12--15b17-----15p12---------|
G|--------------------------------------------14b16---|
D|----------------------------------------------------|
A|----------------------------------------------------|
E|----------------------------------------------------|
E|-12--------------12--------------12--------------12-|
B|----15p12-15b17-----15p12-----------15p12-15b17-----|
G|--------------------------14b16---------------------|
D|----------------------------------------------------|
A|----------------------------------------------------|
E|----------------------------------------------------|
E|--------------12--------------12--------------12----|
B|-15p12-----------15p12-15b17-----15p12--------------|
G|-------14b16---------------------------14b16--------|
D|----------------------------------------------------|
A|----------------------------------------------------|
E|----------------------------------------------------|
E|-------15b17----b17r15~---12----------------12------|
B|-15p12-----------------------15p12-15b17-------15p12|
G|----------------------------------------------------|
D|----------------------------------------------------|
A|----------------------------------------------------|
E|----------------------------------------------------|
E|----------------------------------------------------|
B|-------------------15---------15--------------------|
G|-14b16r14p12-14b16----14b16------14b16r14p12----12~|
D|---------------------------------------------14-----|
A|----------------------------------------------------|
E|----------------------------------------------------|

Interldio:
E5
(Where do we go?)
G5
(Where do we go now?)
A5
C5 D5
(Where do we go?)
E5
Where do we go?
G5
(Where do we go now?)
A5
C5 D5
Where do we go now?
E5
G5
Where do we go?
(Sweet child)
A5
C5 D5
Where do we go now?
P.M.
E|-x-x-----x---------14-14------------x---x---x-------|
B|-x-x-----x--------------------------x---x---x-------|
G|-x-x-----x-------------------7/9~---x---x---x-------|
D|-----x-x----------------------------x---x---x-------|
A|-----x-x--------------------------------------------|
E|-----x-x--------------------------------------------|
E|----------------------------------------------------|
B|----------------------------------------------------|
G|----------------------------------------------------|
D|-x--x-x-7p5----x-x-7p5------------------------------|
A|-----------------------7p5--------------------------|
E|---------------------------7p5-3--------------------|
E|----------------------------------------------------|
B|----------------------------------------------------|
G|-7-7h9p7h9p7h9p.../12~------------------------------|
D|----------------------------------------------------|
A|----------------------------------------------------|
E|----------------------------------------------------|

Final:
E5
(Where do we go?)
G5
(Where do we go?)
A5
C5 D5
Where do we go now?

E5
G5
Where do we go?
A5
C5 D5
Where do we go now?
E5
G5
Where do we go?
A5
C5 D5
Where do we go now?
E5
G5
Where do we go?
A5
D5 C5
Where do we go now, now, now
B5 A5 G5 F#5 E5
Now, now, now, now, now
G5
Sweet child
A5 C5 D5
E5
Sweet child
o' mine
(Parte 1)
E|--------------------------------------------12-x-x--|
B|-b17r15--12--------------12--15-x-x-x-x-15----------|
G|------------b16r14-12~------------------------------|
D|----------------------------------------------------|
A|----------------------------------------------------|
E|----------------------------------------------------|
E|-22b24----b24--b24--b24--b24--b24r----20------------|
B|-----------------------------------------22---------|
G|----------------------------------------------------|
D|----------------------------------------------------|
A|----------------------------------------------------|
E|----------------------------------------------------|
E|----------------------------------------------------|
B|-b24r22--b24r22----b24-b24r22b24r22----20-----------|
G|------------------------------------------21-21~----|
D|----------------------------------------------------|
A|----------------------------------------------------|
E|----------------------------------------------------|
(Parte 2)
E|----------12-------------12-------------12----------|
B|-15b17-------15p12----------15p12----------15p12----|
G|-------------------14b16----------14b16-------------|
D|----------------------------------------------------|
A|----------------------------------------------------|
E|----------------------------------------------------|

E|-------12-------------12-------------12-------------|
B|----------15p12----------15p12----------15p12-------|
G|-14b16----------14b16----------14b16----------14p16-|
D|----------------------------------------------------|
A|----------------------------------------------------|
E|----------------------------------------------------|
E|-12-------------12-------------12-------------12----|
B|----15p12----------15p12----------15p12-------------|
G|----------14b16----------14b16----------14p16-------|
D|----------------------------------------------------|
A|----------------------------------------------------|
E|----------------------------------------------------|
E|--------------------------12------------------------|
B|--15p12-15b17r15p12-15~------15p12------------------|
G|-----------------------------------14b15------------|
D|----------------------------------------------------|
A|----------------------------------------------------|
E|----------------------------------------------------|
E|----------------------------------------------------|
B|----------------------------------------------------|
G|-b15r14p12--14--14~---12-14-12----------------------|
D|-------------------------------14-12----------------|
A|----------------------------------------------------|
E|----------------------------------------------------|
(Parte 3)
E|----------12-------------12-------------------------|
B|-15b17----------15b17----------15--12---------------|
G|----------------------------------------------------|
D|----------------------------------------------------|
A|----------------------------------------------------|
E|----------------------------------------------------|
E|----------------------------------------------------|
B|-15b17--15--12--------------------------------------|
G|----------------14b16--14--12--14b16~~br-----------|
D|----------------------------------------------------|
A|----------------------------------------------------|
E|----------------------------------------------------|
E|----------------------------------------------------|
B|----------------------------------------------------|
G|-/9~------------------------------------------------|
D|-------149----95----------------------------------|
A|----------------------107~---2--------------------|
E|------------------------------------/53p0----------|
----------------- Acordes -----------------

A5* = X 0 P2 2 X X - (*G#5 na forma de A5)


B5* = X 2 4 4 X X - (*A#5 na forma de B5)
C* = X 3 2 0 1 0 - (*B na forma de C)
C5* = X 3 5 5 X X - (*B5 na forma de C5)
D* = X X 0 2 3 2 - (*C# na forma de D)
D#5* = X 6 8 8 X X - (*D5 na forma de D#5)
D5* = X 5 7 7 X X - (*C#5 na forma de D5)
E5* = 0 P2 2 X X X - (*D#5 na forma de E5)
F#* = 2 X X X X X - (*F na forma de F#)
F#5* = 2 4 4 X X X - (*F5 na forma de F#5)
G* = 3 2 0 0 3 3 - (*F# na forma de G)
G5* = 3 5 5 X X X - (*F#5 na forma de G5)