Você está na página 1de 21

Captulo 7: Introduo a notao de CIFRAS

Cifra apenas uma notao diferente para os acordes, muitos a consideram um mtodo, e
na verdade realmente . Existem dois mtodos mais conhecidos para aprender e tocar
violo, o mtodo da Pauta Msical, que bem mais preciso, pois contm a oitava que a nota
deve ser tocada assim como o seu tempo e todos os detalhes para que a msica seja tocada
exatamente como seu criador a compos. No mtodo das cifras, o processo foi simplificado,
porm depende muito mais da sua habilidade e criatividade para conseguir fazer com que a
msica lembre a original. Por ser mais simples de entender, as cifras foram se tornando o
padro mais conhecido e utilizado pelos msicos amadores, voc j deve ter visto algo
parecido com isso:

Garom (Reginaldo Rossi)

Dm Gm
Garom, aqui, nesta mesa de bar
A Dm A
Voc j cansou de escutar, centenas de casos de amor
Dm Gm
Garom, no bar, todo mundo igual
A Dm D7
Meu caso mais um, banal, mas preste ateno por favor

Cifra Nota correspondente Cifra Nota correspondente


A L Am L menor
B Si Bm Si menor
C D Cm D menor
D R Dm R menor
E Mi Em Mi menor
F F Fm F menor
G Sol Gm Sol menor

Captulo 8: Acordes com 7

Existem notas que alm de serem formados pela PRIMEIRA, TERA e a QUINTA so
formados tambm pela STIMA. Estes acordes so chamados de Acordes com 7. Neste
captulo aprenderemos a fazer os acordes com 7 apartir das tabelas dos capitulo 4 e 5.

Para acharmos a stima menor de uma nota devemos pegar a primeira (que sempre ela
prpria) e diminuir um tom inteiro e para charmos a 7 Maior (Ex. D7M) pegamos a primeira
e diminuimos 1/2 tom!

Portanto a notao :

X7 - Leia X com 7 menor ou apenas, X com stima


X7M - Leia X com 7 maior.

Por Exemplo:
A7 (La com 7), pegamos o prprio L (nota), que a primeira de A (acorde) e diminuimos 1
tom inteiro.
ou seja, o A era formado por, La, Do e Mi da pegamos a primeira de A que L e
diminuimos 1 tom, ento A7 formado por Sol, Do e Mi.

Por que pegar a primeira e diminuir 1 tom para achar a stima menor, qual a
lgica?

Muito simples, um acorde com stima formado pela TERA, QUINTA e a STIMA, para
encontrarmos a stima, mais fcil voc pegar a OITAVA e diminuir 1 tom inteiro, no
mesmo? , exatamente o que ns fizemos, lembra que a 1 a a oitava so iguais! Baixamos
direto da primeira porque j sabemos que a primeira de qualquer nota ela mesma!

Vamos a outro exemplo:


Como achar D7 (R com 7)?

Primeiro passo: Quais as notas que formam D?


Elas so: R, Fa# e L (Consulte o captulo 4 se tiver dvidas)

Sabemos que a primeira de qualquer nota ela mesma, ento a primeira do acorde R a
nota R, ento vamos achar a stima diminuindo 1 tom da primeira. R - 1 tom = D

Ento, D7 formada por: Do, Fa# e L.


(Cuidado quando for diminuir 1 tom de Fa e D, pois D - 1 tom = La# e F - 1 tom = R#)

Podemos lembrar tambm todos os acordes se apresentam conforme as seguintes


denominaes:

a) ACORDES CONSONANTES: Representam a srie de acordes que ao serem tocados


transmitem uma sensao repousante e harmoniosa. Geralmente so as "posies" mais
fceis de serem tocadas Portanto, nesta fase do curso, vamos usar principalmente estes
acordes.

b) ACORDES DISSONANTES: Ao contrrio dos anteriores, estes transmitem uma sensao


mais tensa, mais chocante (dando a impresso de pouco harmoniosa).
Estes acordes so utilizados principalmente na execuo da "Bossa Nova" e do "Jazz". Muitas
vezes, quando estes acordes so tocados separadamente, transmitem uma sensao de
"erro", porm, no contexto geral da msica tornam-se agradveis.

Podemos lembrar tambm que stes smbolos abaixo so utilizados para nomear acordes:

M ou + L-se maior
+5 " com quinta aumentada
6 " com sexta maior
7 " com stima (menor) - da dominante
7M " com stima - Maior
9 " com nona - Maior
m " menor
m6 " menor com sexta
dim ou o " stima diminuta
m7 " menor com stima
-9 " com nona menor

Captulo 9: Acordes Relativos

Existem alguns acordes que so bem difceis de serem feitos, alguns usam pestana outros
exigem uma abertura de dedo muito grande, ou seja, tudo que os iniciantes fogem! Para
sorte de vocs, existem acordes que possuem som bem parecido com outro acorde!
Como os acordes so formados pela PRIMEIRA, TERA e a QUINTA, acordes que possuam a
tera e a quinta iguais ss chamados de relativas (A primeira nunca ser igual, pois a
primeira de qualquer nota ela mesma, alm disso, se fosse igual seria a mesma nota).

Vejamos as principais notas relativas.

Cifras Suas Relativas


A F#m
B G#m
C Am
D Bm
E C#m
F Dm
G Em

Captulo 10: Inverses

Fazer a inverso de um acorde significa colocar na base desse acorde, ao invs da nota
fundamental, a mediante ou a dominante. Por exemplo: C formado por: D, Mi e Sol. Sua
primeira inverso, em Mi, sua segunda Inverso em Sol e sua Terceira Inverso em Si,
e o que isso significa?
Mi, Sol e Si correspondem, respectivamente TERA, QUINTA e a STIMA de D.
As inversas devem ser adicionadas as notas originais, ou, as notas originais devem ter o
baixo na nota inversa.

Exemplos: Existem duas notaes:

1 Notao 2 Notao
Quando temos algo parecido com X/Y, Quando temos algo parecido com X/N onde
onde X uma nota qualquer e Y X uma nota qualquer e N um nmero
outra nota qualquer. qualquer.
Exemplos: Exemplos:
G/A C/7
Em/B D7/9
Fa#/E E7/11

Voc j deve ter visto algo parecido com isso:

Tempos Modernos
De: Lulu Santos

Introduo: (G/D D) A Em

G D A7 A6
Eu vejo a vida melhor no futuro
Em G D A7
Eu vejo isto por cima de um muro
G Em/B
De hipocrisia
Em C7+ C/D
Que insiste em nos rodear

Na introduo, temos logo de cara um Sol com baixo em R, analizando a nota, atravs da
tabela do cap. 5, descobrimos que R a Quinta de Sol, ou seja, sua 2 inverso!

Depois temos Mi menor com baixo em Si, Si tambm a Quinta de Mi menor, portanto
tambm a 2 inverso.
J o D com baixo em R, na ltima linha, uma outra nota, no uma inversa, pois a
inversa deve ter baixo ou na TERA, na QUINTA ou STIMA. Analizado esta nota, chegamos
a concluso que o R, a NONA de D. (ou SEGUNDA, mas a notao mais usual a oitava
superior)

Por que R a Nona de D?

Sabemos que a PRIMEIRA e a OITAVA so iguais, por que? Uma oitava constituida por 8
notas, por exemplo: Do, Re, Mi, Fa, Sol, La, Si. (1 Oitava).Do, Re, Mi, Fa, Sol, La, Si, Do.
(2 Oitava)
1 2 3 4 5 6 7 8 9 10 11 12 13 14 15

Captulo 11:Cifrado

Cifrado a nomenclatura universal moderna de hamonizao . Onde os nomes das


notas so substitudos por letras .

A (l) B (si) C (d) D (r) E (mi) F (f) G (sol)

Acidentes: # (sustenido) aumenta anota meio tom


b (bemol) diminui a nota meio tom

Cdigos: m (acorde menor) + ou M (acorde maior)


(acorde diminuto) / (acorde com o baixo alterado)
- (acorde diminudo) Ex. (E/D = Mi maior com o baixo em R)

Captulo 12:Transporte

O transporte utilizado para modificar a tonalidade da msica para mais aguda ou


para mais grave.
Se a msica estiver cifrada muito baixa na marcao original encaminha-se para a
direita at achar o tom ideal . Quando estiver cifrada muito alta encaminha-se para
esquerda .

Para a direita ----------: mais alto


Para esquerda :--------: mais baixo

Captulo 13: Baixo

O baixo tem funo de reforar harmoniosamente as notas graves dos acordes .


Todo acorde formado pr trs ou mais notas.

1 Tnica 2 Tera 3 Quinta 4 Dissonncia


No baixo contasse as notas da corda MI para a corda sol . No sentido de aumento de
tom. . Na maior parte dos acompanhamentos , o baixo utiliza a tnica
como a nota preponderante , portanto as outras notas podem ser utilizadas para
fazer um desenho meldico , e com isso obter um resultado mais colorido no
acompanhamento....

D = 33 R = 35 MI = 40 F = 41 SOL = 43 L = 45 S = 32

Esse um sistema de nmeros que facilita a identificao da nota , ele procede da


Seguinte maneira ,contasse as cordas de baixo para cima dando nmeros decimais
como nome ...

Corda 1 solta = 10 Corda 2 solta = 20 Corda 3 solta = 30 Corda 4 solta = 40


Se a corda 1 estiver pressionada na primeira casa ser 11 se estiver pressionada
Na Segunda ser 12 e assim sucessivamente com as outras cordas.....

Captulo 14: Escalas


Vamos aprender a construir uma escala de D a D e com todos os seus acidentes.
Para isto precisamos saber que entre Mi e F - Si e D no h sustenido (#) ou
bemol (b),
e que o # e o b ocupam a mesma casa ou seja um F # est localizado na mesma
casa
Em que vamos encontrar o Sol b.

Logo temos.

D|#|R|#|Mi|F|#|Sol|#|L|#|Si|D
ou
D|b|R|b|Mi|F|b|Sol|b|L|b|Si|D
Mi--|F-|#-b|Sol|#-b|L-|#-b|Si-|D-|#-b|R-|#-b|Mi-|
L--|#-b|Si-|D-|#-b|R-|#-b|Mi-|F-|#-b|Sol|#-b|L-|
R--|#-b|Mi-|F-|#-b|Sol|#-b|L-|#-b|Si-|D-|#-b|R-|
Sol-|#-b|L-|#-b|Si-|D-|#-b|R-|#-b|Mi-|F-|#-b|Sol|
Si--|D-|#-b|R-|#-b|Mi-|F-|#-b|Sol|#-b|L-|#-b|Si-|
Mi--|F-|#-b|Sol|#-b|L-|#-b|Si-|D-|#-b|R-|#-b|Mi-|

Captulo 15: Transposio de Tons


A transposio de tonalidade o meio de fazer com que uma msica que voc j
tenha
cifrada em casa, mas no consegue cantar por no conseguir alcanar a tonalidade,
possa ser baixada ou aumentada, em sua tonalidade, de acordo com as suas
necessidade,
servindo tambm para facilitar o trabalho de outros instrumentistas evitando que
tenha que tocar em tonalidades difceis de ser executadas.

Para isso utilizamos a escala.


D|#|R|#|Mi|F|#|Sol|#|L|#|Si|D

Faremos dois exemplos para a sua compreenso.


EXEMPLO 1
Digamos que, uma msica foi feita originalmente nos acordes D - F - Sol, mas
quando voc a executa a sua voz no alcana algumas notas por serem muito
agudas,
nesta situao que recorreremos ao uso da transposio de tonalidade, e
trocaremos
os acordes por outros mais graves logicamente.

Usando a escala acima vamos diminuir meio tom ou seja vamos localizar os acordes
D - F - Sol na escala e voltar um acorde.

Resultado o acorde D passar a ser Si, o acorde F passar a ser Mi e o acorde


Sol passar ao acorde F #.
EXEMPLO 2
Digamos que o caso seja inverso, que a msica que voc pretende executar muito
grave
e voc quer que a melodia se torne mais aguda.

Tomaremos como base os acordes Mi - L - R, e usando a escala alteraremos um


tom,
ou seja duas notas para frente.
Resultado o acorde Mi passar a ser o F # o acorde L passar a ser o acorde Si
e o acorde R a Mi.

Captulo 16:Tcnicas

* Ligaduras (Legato)

a ligao de som que aparece entre uma nota fixa e uma nota solta. Tambm
conhecida como legato, uma tcnica amplamente empregada em aranjos e solos.
Existem basicamente dois tipos de ligaduras: uma ascendente e outra descendente,
conhecidas respectivamente como Hammer-on e Pull-of.

Hammer-on (h)

Consiste basicamente em tocar uma nota e fazer a outra soar sem auxlio da mo
direita. A nota ligada ser martelada com um dedo da mo esquerda. Esta nota que
vai soar depois da primeira, vai estar sempre na mesma corda em qualquer uma
casa acima (ligadura ascendente).

Abaixo temos um exemplo de aplicao de hammer-ons feito sobre uma escala


pentatnica.

e:|--------------------8h10--12----------------|
B:|--------------8h10---------------------------|
G:|---------7h9---------------------------------|
D:|---7h10--------------------------------------|
A:|-----------------------------------------------|
E:|-----------------------------------------------|

Di: 14 13 2 4 2 4 4

Execuo

Para executar o trecho acima, siga a digitao da mo esquerda representada por


"Di". Toque a nota da corda (D) 7 casa com o dedo 1, a nota da 10 casa ser
obtida atravs de uma martelada com o dedo 4. A martelada deve ser feita sem
soltar o dedo 1 da 7 casa. Depois temos uma ligadura na corda (G) 7 casa ligada
com a 9 casa, a martelada agora feita com
o dedo 3. As outras ligaduras sero executadas da mesma forma.

Representao

Na tablatura acima temos quatro ligaduras do tipo "Hammer-on", representadas pela


letra "h". Note que o primeiro nmero antes do "h" sempre inferior ao segundo
(ligadura para cima).

Em outras formas de representao em tablaturas, encontraremos as ligaduras


representadas pelo smbolo (_) entre dois ou mais nmeros. Neste formato no
temos indicado o tipo de ligadura (hammer-on ou pull-of).

Abaixo temos outro exemplo de aplicao de hammer-ons feito sobre a escala maior
de G.

e:|--10_12--8_10--7_8--5_7--3_5--2_3_2_0--|
B:|-------------------------------------------------|
G:|-------------------------------------------------|
D:|-------------------------------------------------|
A:|-------------------------------------------------|
E:|-------------------------------------------------|

Di: 1 3 1 3 12 13 13 121

Analisando o exemplo acima, nota-se no trecho final (2_3_2_0) um conjunto de


ligaduras, onde (3_2_0) so descendentes (Pull-of).

Pull-of (p)

Pull-off de certa forma o inverso de um hammer-on, consistem em soltar


rapidamente uma nota fazendo com que a mesma soe solta ou apertada em um
traste anterior, sem auxlio da mo direita. Esta nota que vai soar solta, vai estar
sempre na mesma corda em qualquer uma casa abaixo (ligadura descendente).

Neste exemplo temos a aplicao de pull-ofs feito sobre uma escala pentatnica.

e:|---10p8--------------------------------------|
B:|--------10p8---------------------------------|
G:|-------------9p7------7----------------------|
D:|------------------10--------------------------|
A:|-----------------------------------------------|
E:|-----------------------------------------------|

Di: 42 42 31 4 1

Execuo

Para executar o trecho acima siga a digitao da mo esquerda representada por


"Di". Para executar (10p8) o dedo 2 da mo esquerda deve estar posicionado na 8
casa, toque a nota da corda (e) 10 casa (pressionada pelo dedo 4) puxe soltando
a nota com o mesmo dedo. O importante sempre estar com o dedo da nota
anterior posicionado.

Representao

Na tablatura acima temos trs ligaduras do tipo "Pull-of", representadas pela letra
"p". Note que o nmero antes do "p" sempre superior (ligadura para baixo).

No prximo exemplo temos a aplicao de pull-ons feito sobre a escala maior de G.

e:|--12_10--10_8--8_7--7_5--5_3--3_2_0-----|
B:|-------------------------------------------------|
G:|-------------------------------------------------|
D:|-------------------------------------------------|
A:|-------------------------------------------------|
E:|-------------------------------------------------|

Di: 3 1 3 1 21 31 31 21
Obs.:
No incio difcil conseguir um som satisfatrio das notas marteladas ou puxadas, a
tcnica de ligaduras exige um bom instrumento, agilidade e treinamento.

Lick de exemplo

No exemplo abaixo temos a aplicao de hammer-ons e pull-ofs em uma escala de D


maior (desenvolvimento do Ag2 no 5 Tr. dedo 2 na 5 corda).

Ag3 Ag2

e:|--7h9p7-10--9-7----7-----------------------------------------|
B:|----------------10---10-8-7h8p7---7-------------------------|
G:|--------------------------------9-----9-7h9p7-/6~-----------|
D:|----------------------------------------------------------------|
A:|----------------------------------------------------------------|
E:|----------------------------------------------------------------|

Di: 1 3 1 4 3 1 4 1 4 2 1 2 1 3 1 31311

Ag2

e:|---------------------------------------------------------------|
B:|---------------------------------------------------------------|
G:|--6h7p6-9--7-6---6-----------------------------------------|
D:|---------------9-----9-7h9p7-/5--5h7p5-4~---------------|
A:|---------------------------------------------------------------|
E:|---------------------------------------------------------------|

Di: 1 2 1 4 2 1 4 1 4242 2 2421

Captulo 16:Tcnicas

*Trinados (Trill)

um tipo de ligadura que envolve uma combinao de Hammer-ons e Pull-ofs em sequncia.


Os trinados so classifaicados em simples e compostos podendo ser de curta ou de longa
distncia.

Trinado simples

O exemplo abaixo contm 3 trinados simples de curta distncia.

trill trill trill


e:|--5h8p5----8h10p8----10h12p10----------|
B:|-------------------------------13--10--------|
G:|----------------------------------------------|
D:|----------------------------------------------|
A:|----------------------------------------------|
E:|----------------------------------------------|

Di: 1 4 1 131 1 3 1 4 1
O trinado simples contm somente uma nota solta, no exemplo acima os trinados so
classicados como de curta distncia, por que so executados somente com a mo esquerda.
Note que neste caso no foi mostrado a quantidade de vezes que foi executado cada trinado,
como no exemplo abaixo, outro trinado simples a curta distncia:

Trill
e:|--5h7p5h7p5h7---/9--7p5---5-------------|
B:|------------------------7---------------------|
G:|----------------------------------------------|
D:|----------------------------------------------|
A:|----------------------------------------------|
E:|----------------------------------------------|

Di: 131313 3 3131

No prximo exemplo uma situao comun, um trinado simples usando uma nota obtida em
uma corda solta:

Tr ~~~~~~
e:|------------------------------------------------|
B:|------------------------------------------------|
G:|------------------------------------------------|
D:|------------------2-----------------------------|
A:|-----0-(2)--------------------------------------|
E:|--0----------------------------------------------|

Di: 3 3

Obs.: Nos trinados a curta distncia somente a primeira nota ser ferida com a paleta, as
outras sero obtidas atravs das ligaduras (Hammer-ons e Pull-ofs) usando somente os
dedos da mo esquerda.

Representao

Como exempilficado acima os trinados sempre esto contidos em sequncias de ligaduras


que podem vir acompanhadas da palavra "Trill" ou do smbolo "Tr ~~~~ ".

Trinado composto

o trinado que contm mais de uma nota solta:

Tr ~~~~ Tr ~~~~
e:|--8p7p5----10p8p7----10h12-8h10--7h8p7--5---------|
B:|--------------------------------------------------|
G:|--------------------------------------------------|
D:|--------------------------------------------------|
A:|--------------------------------------------------|
E:|--------------------------------------------------|
Di: 4 3 1 421 1 3 13 121 1

Obs.:

Os trinados simples so repeties de ligaduras entre duas notas;


Os trinados compostos so repeties de ligaduras entre trs ou mais notas;

Trinado longa distncia (Two Hands)

Tcnica tambm conhecida como "Two Hands" utiliza-se as duas digitaes. Utilizar duas
digitaes significa tocar a escala no brao do intrumento com a mo esquerda e direita.

Abaixo temos um exemplo onde a nota indicada por "T" (Tap) e um "martelado" com o dedo
mdio da mo direita. A sequncias de trinado abaixo so todas compostas, possuem trs
notas ligadas.

T T T T T
e:|-12-_2h3p2---10-_2h3p2---9-_2h3p2---7-_2h3p2--5-_2h3p2-----|
B:|----------------------------------------------------------- |
G:|-----------------------------------------------------------|
D:|-----------------------------------------------------------|
A:|-----------------------------------------------------------|
E:|-----------------------------------------------------------|

Di: (2) 1 2 1 (2) 1 2 1 (2) 1 2 1 (2) 1 2 1 (2) 1 2 1

Execuo

Note que as notas marteladas so pull-ofs executados a longa distncia, uma nota na 12
casa e a outra na 2. Para executar o martelado, martele a nota realize uma puxada
soltando a nota fazendo-a soar, semelhante ao pull-of.

Representao

Alm do smbolo "T" temos tambm na linha (Di) digitao da mo esquerda, a indicao (2)
do dedo mdio da mo direita (martelada).

Neste outro exemplo temos vrios trinados compostos a longa distncia, os trs primeiros
so executados 4 vezes cada:

___4x___ ___4x___ ___4x___


T T T
e:|--15p5h7p5-------------------15p5h7p5-------------|
B:|----------------15p5h7p5-----------------------------|
G:|--------------------------------------------------------|
D:|--------------------------------------------------------|
A:|--------------------------------------------------------|
E:|--------------------------------------------------------|

Di: (2) 1 3 1 (2) 1 3 1 (2) 1 3 1

T T T T T
e:|--13p5h7p5---15p5h7p5---17p5h7p5---18p5h7p5---20p5h7p5--|
B:|--------------------------------------------------------|
G:|--------------------------------------------------------|
D:|--------------------------------------------------------|
A:|--------------------------------------------------------|
E:|--------------------------------------------------------|

Di: (2) 1 3 1 (2) 1 3 1 (2) 1 3 1 (2) 1 3 1 (2) 1 3 1

Lick de exemplo

Lick construido sobre uma escala pentatnica, observe a utilizao dos hammer-ons, pull-ofs
e trinados.

e:|---8-5----5-------------------------------------------------- -|
B:|-------8----8--5--8--5-----5---------------------------------|
G:|------------------------7-----7--5h7p5---5------------------|
D:|---------------------------------------7-----5h7p5----5-----|
A:|----------------------------------------------------7--------- |
E:|-------------------------------------------------------------- |

Di: 414 14 1 4 1 3 1 3 13131 131 31

Tr ~~~~
e:|----------------------------------------5----5h8p5---------|
B:|------------------------------5----5--8---8-----------------|
G:|-------------------5----5--7----7---------------------------|
D:|--------5----5--7----7--------------------------------------|
A:|--(5)/7---7------------------------------------------------- |
E:|------------------------------------------------------------ |

Di: 313 1 3 13 1 3 13 1 414 141

e:|---8/-10h8-------------------------------------------------|
B:|-----------10--8h10p8------8-10~------------------------|
G:|-----------------------9b-----------------------------------|
D:|------------------------------------------------------------|
A:|------------------------------------------------------------|
E:|------------------------------------------------------------|

Di: 4 4 2 4 24 2 3 2 4

Captulo 16:Tcnicas

Trmulo

Tcnica conceituada como oscilao vertical da palheta, que consite em "tremer" executando
paletadas rpidas e constantes sobre as notas. E umatcnica bastante difundida entre
guitarristas virtuosos. Escute e veja o exemplo abaixo:
Trmulo *****************************************************>
e:|------------------------------------------------------------------|
B:|------------12--10--------10-12-10----------------------------|
G:|--12--11-12---------12-------------12-11--9--11--12--------|
D:|------------------------------------------------------------------|
A:|------------------------------------------------------------------|
E:|------------------------------------------------------------------|
Di: 3 2 3 4 2 4 2 4 2 4 3 1 3 4

Trmulo *****************************************************>
e:|--------------------------------------------------------------------------|
B:|-12-10-----------12/-14--12--10---------------------10--------------|
G:|-------12-11--9---------------------12/-14----11-12----12-11-9----|
D:|-------------------------------------------------------------------------|
A:|-------------------------------------------------------------------------|
E:|-------------------------------------------------------------------------|
Di: 4 2 4 3 1 4 4 4 1 4 4 3 4 3 4 31

Execuo

Segure mais no centro da paleta com firmeza, procure ferir a corda somente com a ponta da
paleta, mantenha o ritmo do movimento sempre igual, veja outro exemplo:

Trmulo ********************************************************>
e:|--12-10-12-------------------------------------------------------------------- |
B:|-----------13-12--13-12-10---12-13-12-10/-8----8-10/-12\-10-8---------|
G:|--------------------------------------------9-----------------9-7-9------------|
D:|-------------------------------------------------------------------------------- |
A:|---------------------------------------------------------------------------------|
E:|---------------------------------------------------------------------------------|

Trmulo ********************************************************>
e:|-------------------------------------------------------------------------|
B:|-------------------------------------------------------------------------|
G:|-----7-9-7/-5-7-5/-4-5-4---4-----------------------------------------|
D:|--10---------------------7---7-5-7-5-4-5-4---4-----------------------|
A:|-------------------------------------------7---7-5-7--------------------|
E:|--------------------------------------------------------------------------|

Trmulo ********************************************************>
e:|---------------------------9-11-12------------------------------------ |
B:|--------------------10-12----------------------------------------------|
G:|---------------9-11----------------------------------------------------|
D:|-------7/-9-11---------------------------------------------------------|
A:|--7-9-------------------------------------------------------------------|
E:|-------------------------------------------------------------------------|

No prximo exemplo, a tcnica de trmulo foi aplicada em um trecho que se repete na


mesma corda:

--->
e:|----------------------------5------5----8--------------------- |
B:|----------------6-----6--8-----8------------------------------|
G:|-----5----5--7-----7----------------------------------------- |
D:|--/7---7------------------------------------------------------ |
A:|--------------------------------------------------------------- |
E:|--------------------------------------------------------------- |

Di: 313 1 3 2 3 2 4 1 4 1 4

Trmulo *******************************************>

e:|---10-8-10-12-10-12-13-12-13-15-13-15-17-15-17-18-17-18-20-\---|
B:|---------------------------------------------------------------|
G:|---------------------------------------------------------------|
D:|---------------------------------------------------------------|
A:|---------------------------------------------------------------|
E:|---------------------------------------------------------------|

Di: 42 44 2 44 3 4 4 2 4 4 2 4 4 3 4 4

comum encontrar o trmulo em trechos de solos e arranjos, ou at mesmo aplicado em


melodias inteiras em peas de msica instrumental.

1 Exerccio

Este exerccio especfico para treinar as paletadas com a mo direita.

Trmulo *******************************************>

e:|--*-*-*)-(*-*-*--------------------------------------------------|
B:|------------------*-*-*)-(*-*-*----------------------------------|
G:|----------------------------------*-*-*)-(*-*-*------------------|
D:|--------------------------------------------------*-*-*)-(*-*-*--|
A:|--------------------------------------------------------------------|
E:|--------------------------------------------------------------------|

Neste exerccio a mo esquerda tem o papel de abafar as cordas. Comee deslizando os


dedos (mantenha o dedo apenas encostado na corda) apartir da primeira casa at o fim do
brao na 1 corda, realizando o trmulo com a mo direita. Depois repita o movimento
voltando para a primeira casa. Repita este procedimento para todas cordas.

As paletadas devem ser constantes, sem atrasos ou paradas nas notas. Segure a paleta com
firmeza procure paletar somente com a ponta. Uma boa dica experimentar paletas de
espessura e textura diferentes, uma boa paleta facilita muito na execuo de certas tcnicas.

Captulo 17: Dvidas Cruciais: Tom, Batida e Ouvido

Muitos usurios me enviam e-mail com diversas dvidas, e dentre elas irei enumerar e
explica explicar aqui as principais que atormentam bastante a vida deles. Mas lembre-se que
preciso bastante treinamento e pacincia para se ter xito na execuo deestas tcnicas.
Nada se aprende de uma hora pra outra. Vamos a elas:

1) Como identificar o tom de uma msica,


2) Como saber a batida de determinada msica

3) Como treinar meu ouvido para uma cifragem correta.

Identificando o Tom

Bom, isso uma questo meio complicada de explicar, pois isso depende exclusivamente de
voc msico. Para se identificar o tom de uma msica, necessrio, antes de mais nada,
dominar os acordes suas dissonantes e principalmente ter um ouvido bem apurado. Se voc
no saber os acordes e suas ramificaes de nada vai adiantar voc querer identificar o tom
de uma cano.

A dica que dou que depois de fazer um estudo detalhado dos acordes, procure pegar um
CD, escolha uma msica e j na introduo dela tente perceber os acordes usados, para
quando come-la ficar mais fcil a identificao. Geralmente as msicas comeam com
acordes puros, tipo C G D E F D# Bb e por ai vai. Vai tocando junto com as msicas todos
esses acordes simples at voc perceber com seu ouvido que o tom est batendo com o
acorde que voc utilizou.

Mas lembre-se: Voc s ter xito nessa operao, se o seu violo estiver bem afinado.
Caso contrrio, ser perda de tempo

Batidas

Esse outro quesito com bastante dvidas. Todos devem lembrar inicialmente, que hoje em
dia no existem mais msicas que devem ser tocadas por aquela determinada batida. Por
exemplo: Atualmente, no tem regra de que uma msica sertaneja tem que ser tocada com
a batida sertaneja e por a vai.

Os ritmos esto muito misturados. Hoje, um pagode tocado em arpeggio, que uma
batida especialmente pra msicas romnticas. Ento o que vocs devem pensar, nunca
seguir a regra. Procurem utilizar a batida pra msica que est sendo tocada. No liguem se o
grupo de forr e tem que tocar a batida de forr. Hoje, como todas as msicas esto meio
``comerciais`` os ritmos ficam misturados, e o que forr, pode ser algo romntico. Sei
que difcil vocs entenderem no incio, mas tente ir tocando junto com a msica para vocs
perceberem a batida que ser utilizada.

Inventar tambm preciso! No pensem que s existem aquelas batidas que coloquei no
site. Existem muitas outras e ns devemos ser criativos. Vrios cantores no inventam
acordes? E porque no devemos inventar as batidas? Serja original antes de mais nada. Mas
quando for criar uma batida, crie algo em que haja sincronizao com o tempo da msica e
com os acordes.

Treinando meu Ouvido

Essa uma parte que tambm depende de cada um. Ter um ouvido bem apurado
resultado de bastante treinamento e vontade. Para ser um msico completo, voc precisa
identificar os acordes com mais facilidade, pois muitas vezes voc pode estar reunido com
amigos em alguma roda de msica e ai quando for pedido pra se acompanharem eles
durante a execuo da cano, voc ficar perdido.

Lembre-se que no so pra cifrar msicas que precisa ter um ouvido bom, mas tambm pra
saber tocar junto com os outros em grupos, principalmente quando for feito algum
improviso. J imaginou se o pblico pede uma msica fora do repertrio e ai um dos
integrantes sabe os acordes e voc no sabe. nessas horas que o ouvido entra em ao. Vc
no pode pensar mito.

To logo comece a cano, tente imediatamente identificar os acordes. Sei que complicado,
mas preciso. Faa treinamento com todos os instrumentos principalmente violo e teclado
que tm bastante ligao.
Captulo 18:Agilidade nos Dedos

Estamos de Volta! A partir de agora entraremos na fase final do Curso de Violo.


Nossa inteno no apresentar aqui uma infinidade de assuntos pra fazer com que
voc iniciante se confunda e sim apresentar de forma resumida e bsica todo um
estudo do Violo para que voc saia daqui tocando alguma coisa da melhor forma
possvel.

Estamos preparando uma apostila virtual de Violo. Esta apostila ter mais de 100
pginas feitas no word com um Curso Completo de Violo com os asssuntos
abordados aqui de uma forma mais detalhada, com imagens, demonstraes e
outros diferentes tpicos que vale a pena conferir.Seria importante voc comprar
esse valioso material pois voc pode personalizar a apostila da maneira que quiser e
ter em mos um material rico que vai ajudar pra caramba nos seus estudos ao lado
de um professor ou na escola. At porque uma coisa muito mais organizada e rica
em informaes. E por apenas Dez Reais. Aguarde que em breve estar a venda em
nosso site!

Bem, mas nese captulo tentaremos dar incio a uma srie de atividades para que
voc adquira mais agilidade nos dedos e nas mos. Pois lembre-se: Pra voc solar,
fazer pestanas e acordes complicados importantssimo que sej bastante gil.

Veja abaixo os exerccios que proponho.

Ento a esto :

Este 1 exerccio puramente de digitao.

Use os dedos 1, 2, 3 e 4 (mo esquerda) alternando a ordem em que eles so tocados. Na


mo direita, use os dedos I , M e A.

Exemplo:

-----------------------------------------------------------------

-----------------------------------------------------------------

-----------------------------------------------------------------

----------------------------------------(1)--(4)--(2)--(3)-------

--------------------(2)--(3)--(4)--(1)---------------------------

(1)--(3)--(2)--(4)-----------------------------------------------

Continue o exerccio trocando a ordem dos dedos.

Tente as seguintes combinaes:

1243213431244123

1342214331424132

1432231432144213
Dica

Faa uma srie da 6 corda at a 1 indo do comeo ao fim do brao do violo. Comece
lentamente e v aumentando gradativamente a velocidade medida que no haja erros.

Voltando agora para a mo direita, faa o seguinte:

Deixe as cordas soltas e toque dessa maneira

----------A----

-------M-------

-----I---------

---------------

---------------

-P-------------

Toque o polegar na 6 corda e depois seguidamente os dedos I, M, e A nas 3, 2 e 1


cordas respectivamente.

O Polegar tocado de cima para baixo e o restante dos dedos de baixo para cima, "puxando"
as cordas.

Dica

Quando tocar o Polegar faa como se estivesse "empurrando" a corda para frente e no
apertando-a para baixo.

Toque primeiro o polegar na 6 corda mas depois faa o exerccio usando a 5 e 4 cordas.

Comece lentamente e aumente a velocidade quando estiver seguro.

Tente manter um ritmo ao fazer esse exerccio.

Faa tambm desta maneira:

P I M A M I

Partiremos ento para a escala maior:

Outras digitaes: Em E (Mi Maior)

----------------------------------------------------2--4--5-----

-------------------------------------------2--4--5--------------

----------------------------------1--2--4-----------------------

-------------------------1--2--4--------------------------------

----------------0--2--4-----------------------------------------
-------0--2--4--------------------------------------------------

Este prximo em C(d Maior) e est dividido em teras, toque uma nota e a prxima ser
uma tera acima dela.

-----------------------------------------------------------------

---------------------------------------------------------3-----5-

---------------------------------2------4----2----5----4-----5---

----------2------3---2---5---3-------5---------------------------

---3---------5---------------------------------------------------

-----------------------------------------------------------------

Faa esses dois ltimos exerccios em todos os tons indo e voltando

Captulo 19:Batidas

Voc j deve ter visto em nosso site uma forma de fazer as batidas do violo, n?
Mas muitas pessoas no entendem daquela forma, pois isso depende de usurio para
usurio. Tem alguns que sentem facilidade aprendendo daquela maneira, outros j
sentem facilidade com uma outra forma.

Ento irei colocar aqui uma forma que tambm pode ser ensinada. um pouco mais
complicada, mas quem j possuir um pouco mais de afinidade com o instrumento
vale a pena aprender.

Para indicar estas batidas usaremos um sistema muito simples veja:

B /\ || /\ B...
|| \/ ||

Esta batida um acompanhamento muito comun em musicas populares.

Observe abaixo alguns dos simbolos usados e seus significados:

B - Baixo

Representa um toque com o polegar no baixo do acorde formado

/\ - Marcao curta para cima


||
Representa o toque para cima nas cordas inferiores
do acorde formado (1 para 3 cordas) usando o dedo indicador

|| - Marcao curta para baixo


\/
Representa o toque para baixo nas cordas inferiores
do acorde formado (3 para 1 cordas) usando o dedo indicador
|| - Marcao prolongada para baixo
||
\/ Representa o toque para baixo em toadas as cordas
do acorde formado, usando o dedo indicador

|| - Marcao prolongada para baixo com abafamento


||
\/ Representa o toque para baixo em toadas as cordas
~~ do acorde formado, usando o dedo indicador adicionado
um abafamento coma a palma da mo direita

O abafamento consiste em dar um tapa com a palma da mo sobre as


cordas, com a finalidade de parar sua vibrao.

Representao da mo direira nos grficos dos acordes

C G
|-----|-----|-----|:E b |--2--|-----|-----|:E
b |--3--|-----|-----|:A |-----|--1--|-----|:A
|-----|--2--|-----|:D |-----|-----|-----|:D
. |-----|-----|-----|:G . |-----|-----|-----|:G
. |-----|-----|--1--|:B . |-----|-----|-----|:B
. |-----|-----|-----|:e . |--3--|-----|-----|:e

Lembrando dos grficos de acorde, note que so indicados com


a letra b do baixo e os trs pontos nas cordas inferiores, que
representam as marcaes da mo direita. Os pontos indicam as
cordas que devem ser batidas.

Agora veja abaixo alguns exemplos de batidas:

B /\ || /\ B...
|| \/ ||

B /\ || /\ || /\ || /\ B...
|| \/ || || || \/ ||
\/
~~

B /\ || B...
|| ||
\/
~~

B || B /\ || B...
|| || ||
\/ \/

B || B...
||
\/
~~
B /\ || /\ || /\ B...
|| \/ || || ||
\/
~~

B /\ || /\ B /\ || /\ || /\ B...
|| || || || \/ || || ||
\/ \/
~~ ~~

B /\ || /\ B...
|| || ||
\/
~~

Nmero de Batidas

Algumas das cifras publicadas neste site indicam atrves de nmeros mostrados
acima do acorde a quantidade de vezes que deve ser usada a batida completa
na presente posio. Isto facilita a percepo e o acompanahamento para os
iniciantes.

Captulo 20: A importncia das Cordas

Antigamente as cordas eram feitas de Tripa de animais, atualmente so feitas de


metal ou nilon, as de nilon geralmente so utilizadas em violes clssico e
flamenco. As cordas de metal amarelo e as de nilon no funcionam em guitarras.

Nos violes de 12 cordas elas so afinadas em pares de oitavas.

- Revestimentos

As cordas recebem um revestimento sobre a alma, com a finalidade de aumentar sua


espessura, sem com isso ocasionar tenso excessiva no brao do violo.
Este revestimento feito de diversos tipos de material, tais como ao inoxidvel,
nquel, cobre, lato etc.

Os revestimentos podem ser:

- Revestimento de fio arredondado;


- Revestimento de fio chato;
- Revestimento Lixado;
- Cordas compostas (seda e metal).

- Tipos de cordas:

De ao De nilon
Ultraleve Leve
Extraleve MediaDura
Leve
MediaPesada

- Tenso
O excesso de tenso pode arrebentar as cordas e at empenar o brao do seu
instrumento, por isso afine sempre o violo pelo diapaso, pois a tenso mxima
aceita pela maioria dos violes um tom acima do diapaso.

Mantenha as cordas limpas evitando a perda de elasticidade, o desgaste e a


ferrugem causada pelo suor dos dedos que prejudicam o tom e contribui para a
diminuio do tempo de utilizao das cordas.

As tcnicas de toque pesado contribuem para o encurtamento do tempo normal de


durao das cordas tambm.

- Instalao das Cordas:

Esticar com os dedos as cordas aps a afinao, uma tcnica para evitar que as
cordas tenham que ser afinadas vrias vezes.

Ao instalar as cordas tome cuidado para no dobra-las, isto muito comum


acontecer.
Soltar as cordas por igual, para evitar envergar o brao, o correto soltar uma volta
para cada cravelha.

Evite o uso de cordas de ao em violes clssicos, alguns violes so projetados para


cordas de nilon, e quando utilizamos cordas de ao nestes violes corremos o risco
de empenamento do brao.

Quando o instrumento no for utilizado por um longo perodo aconselhvel que as


cordas sejam afrouxadas.

Mantenha o violo longe do seu rosto e do rosto de outras pessoas enquanto o afina,
as cordas quando arrebentam podem causar ferimentos.

Final: Trmino do Curso

Bom chegamos ao final do primeiro curso criado aqui no site. Esperamos que, com
todos esses ensinamentos que aqui esto, voc possa ter adquirido alguma base
para, pelo menos, tocar em rodas de amigos e fazer boas apresentaes pessoais.

sempre bom lembrar que voc no deve ficar s nisso aqui que a gente passou, at
porque como eu digo sempre, isto apenas um MINI-CURSO BSICO. Ele s serve
pra lhe ajudar nos estudos, tirar dvidas e ter um aprendizado mais rpido com seu
professor. Mas necessrio estudar sempre mais e mais.

Na apostila que produzimos e colocaremos no site sobre Violo, aconselhvel que


vocs a adquirem, pois um material completamente diferente daqui. Alm de
alguns captulos que aqui esto, com mais detalhes claro, iremos abordar outros
assuntos muito importantes para os iniciantes e para os mais experientes.

Acredito eu, que com esse mini-curso bsico, e com a apostila que foi criada, voc
possa ter uma bagagem maior com o tempo e consequentemente um aprendizado
dinmico que complementar muitas carncias em termos de tcnicas.

Mas lembre-se sempre: O grande segredo do aprendizado do violo a


persistncia. No desista na primeira dificuldade, pratique as cifras, e
principalmente pratique mudar de uma cifra pra outra no menor espao de tempo
possvel. Quando estivere apto a posicionar os dedos nas casas corretas e
firmemente pra que o som flua corretamente e sem olhar pra mo do brao do
violo, voc estar apto a tocar qualquer msica.

Um grande abrao todos e espero que tenham gostado de tudo.

Se voc quer mais explicaes sobre a apostila com o curso completo de violo, ou dvidas
sobre alguma captulo ligado ao Violo nos envie um e-mail.