Você está na página 1de 5

Riff (arpeggio):

e|-------------------------------------------------------------------|
b|-----1-------1-------3-0-----0-------1-------0-------1-------3-0---|
g|---0---0---2---2---0-------0---1---2---2---0---0---2---2---0-------|
d|-------------------------------------------------------------------|
a|-3-------------------------------0---------------------------------|
E|---------1--------3------0---------------0-------1-------3---------|

Solo 1#
e|------------------------------------------|
b|------------------------------------------|
g|---5---7---7/9---4---5---5/12-------------|
d|------------------------------------------|
a|---3---5---5/7---2---3---3/10-------------|
E|------------------------------------------|

Solo 2#
e|---------0-------0-------0-------0-------0-------0-------0-------0-|
b|-----1-3-----1-3-----1-3-----1-3-----1-3-----1-3-----0-3-----0-3---|
g|---0-------0-------0-------0-----------------------0-------0-------|
d|-----------------------------------3-------3-----------------------|
a|-------------------------------------------------------------------|
E|-------------------------------------------------------------------|

Solo 3#
e|-------------------------------------------------------------------|
b|-------------------------------------------------------------------|
g|---10--9---5---5/7---7/12------------------------------------------|
d|-------------------------------------------------------------------|
a|---8---7---3---3/5---5/10------------------------------------------|
E|-------------------------------------------------------------------|

Solo 4#
e|-------------------------------------------------------------------|
b|-------------------------------------------------------------------|
g|---9---12---10--9---7---4---5---7---5---4---5---7---5---7---9---10-|
d|-------------------------------------------------------------------|
a|---7---10---8---7---5---2---3---5---3---2---3---5---3---5---7---8--|
E|-------------------------------------------------------------------|

Solo 5#
e|--------------15---------------------------------------------------|
b|---13--12h13-------------------------------------------------------|
g|-------------------------------------------------------------------|
d|-------------------------------------------------------------------|
a|-------------------------------------------------------------------|
E|-------------------------------------------------------------------|

Solo 6#
e|-------------------------------------------------------------------|
b|-------------------------------------------------------------------|
g|---5---7---9---12---14---16---17---19---21-------------------------|
d|-------------------------------------------------------------------|
a|---3---5---7---10---12---14---15---17---19-------------------------|
E|-------------------------------------------------------------------|
_______________________________________________________________________
_____
"Spanish solo":

e|-----4h5-4---------------------------------------------------------|
b|---7-------5/7----------------------------------5--0---------------|
g|-6-------------4/6-6-4--------------------4-6-7--------------------|
d|-----------------------7--7---6-4---4-6-7-------------7-7----------|
a|-------------------------------------------------------------------|
E|-------------------------------------------------------------------|

e|-------------------------------------------------------5--5/7--9---|
b|---------------------------------------------------7-9-------------|
g|-6--7h9---7-7---6-6---6h7-6----------------------6-----------------|
d|----------------------------9-7-6-9-7-6----------------------------|
a|----------------------------------------7-9------------------------|
E|-------------------------------------------------------------------|

e|---9h10-9----------------------------------------------4--5--
5/7-------0-|
b|-----------10-10--9-9--7-7---------------------5h7--5--------------
9-----|
g|----------------------------6-
6------------------------------------------|
d|---------------------------------7-7--6-4--4-
6---------------------------|
a|---------------------------------------------------------------------
----|
E|---------------------------------------------------------------------
----|
_______________________________________________________________________
_____

Aqua Timez - Alones

(Chorus with the riff):


C F G
Oreta awai tsubasa
Em Am Em
Kimi wa sukoshi aosugiru
F G C
Sora ni tsukareta dake sa
F G Em Am
Mou dareka no tame janakute
Em F G Am G
Jibun no tame ni waratte ii yo

(Solo 1#) 2x

(Solo #2)
C G
Izen to toshi no bion ga toutsuu
F
Uchigawa ni tomaru ga osoku
G
Toki wa ubau ni koukanosha

Un ga arya to wa urahara ni
C G
Tarinai kotoba no hitomi
F
No ma ni de umetanain darou
G
Mou wakaranai yo

(solo 1#):
Am Em
Semete umero, wakatta?
F
Jiyuu ni oyogetara
C
Anna sora mo iranai no ni

(solo 1# and 3#):


Am Em
Kinou made no koto wo
F
Iitsubusanakutemo
G
Asu ni mukaeru no ni

(Chorus with solo #4):


C F G
Oreta awai tsubasa
Em Am Em
Kimi wa sukoshi aosugiru
F G C
Sora ni tsukareta dake sa
F G E Am
Mou dareka no tame janakute
Em F G Am
Jibun no tame ni waratte ii yo

(solo 1#) 2x

(solo 5#):
C
Rettoukan to no wakai wa
G
Kantan ni wa kanawanaisa
F
Jiishiki no teppen ni suwaru
G
Kagami ga utsusu hanabira
C
Furishiboru you ni
G F
Kogoreta ai wo sakende miru keredo
G
Modokashikute

(solo 1#):
Am Em
Meguru toki no naka de
F
Kizuguchi wa yagate
C
Kasabuta ni kawatte iku
Am Em
Kimi wa sore o matasu
F
Totemo utsukushiku
G
Totemo hakanage de

(solo 4#):
C F G
Hagare ochita ato no
Em Am
Ubuge no you ni
Em F G C
Hiwamari no naka de furueru inori
F G E C
Ima wa muri ni dareka no koto
Em F G Am
Ai sou to omowanakute ii no ni

"Spanish Solo" following:


Fm, D, Fm, E
Fm, D, E, E

(Solo 1# and 6#)

(solo 4#):
C F G
Toki ni kono sekai wa
Em Am
Ue wo muite
Em F G C
Aruku ni wa sukoshi mabushisugiru ne
F G
Shizumu you ni
E Am
Me wo fuseru to
Em F G C
Kawaita shimen ga namida wo susuru

(solo 4#):
C F G
Why do you remember
Em Am
Without having now
Em F G C
Subete wo uketomenakute no ii yo
F G
Why do you remember
E Am
Without having now
Em F
Koraeru koto dakedo
G Am
Yuuki ja nai

solo 1#