Você está na página 1de 4

Intro:

E|--12----12p10----10------------------------------|

B|-----10-------10----12-10-12/15\12----10---------|

G|-----------------------------------11----9-------|

D|-------------------------------------------12-9--|

A|-------------------------------------------------|

E|-------------------------------------------------|

E|--12----12p10----10------------------------------|

B|-----10-------10---12-10-12----------------------|

G|-------------------------------------------------|

D|----------------------------10-9-7-7-9--9-9~-----|

A|----------------------------------------7-7~-----|

E|-------------------------------------------------|

Riff 1:

E|----------------------------------|--------------------------|

B|----------------------------------|----------10/12-----------|

G|---7------------------------------|--------------------------| (3x)

D|---9----(variando em palm mute)---|--------------------------|

A|---7------------------------------|--------------------------|

E|----------------------------------|--------------------------|

E|----------------------------------|--------------------------|

B|----------------------------------|--------13-12-10----------|
G|---7------------------------------|-----------------12-------|

D|---9----(variando em palm mute)---|--------------------------|

A|---7------------------------------|--------------------------|

E|----------------------------------|--------------------------|

Em D9 C9

posso ver o autor da vida

Am7 D D4 D D9 Em

escrevendo a história de uma geração

D9

levantando seu exército

C9 Am7 D

para cumprir o desejo do seu coração

Riff 2:

E|---------------------------------------|

B|--12-10-----------12-10----------------|

G|--------11-9-11-9-------9~-------------|

D|---------------------------------------|

A|---------------------------------------|

E|---------------------------------------|

E|---------------------------------------|

B|--12-10-----------12-13-10~------------|

G|--------11-9-11-9----------------------|
D|---------------------------------------|

A|---------------------------------------|

E|---------------------------------------|

C9 Am7

começa em mim Senhor

G D/F#

começa em mim Senhor

C9 Am7 G D/F#

a geração que vive pelo teu amor

Refrão:

C9 D Em D

juntos levaremos tua luz

C9 D Em D

e levantaremos nossa voz

C9 D Em D

juntos viveremos como Jesus

C9 Em D

e não haverá limites pra nós

Solo: C9 D Em D

C Am7

não olharemos pra trás


Em D9

não retrocederemos mais

C Am7 G D/F#

vivemos em santidade pelo poder de Deus

C Am7

não olharemos pra trás

Em D9

não retrocederemos mais

C Am7 G D/F#

vivemos em santidade pelo amor de Deus