P. 1
Hino Nacional - tablatura p violão

Hino Nacional - tablatura p violão

|Views: 6.542|Likes:
Publicado porDavidson Lima

More info:

Published by: Davidson Lima on Jul 22, 2011
Direitos Autorais:Attribution Non-commercial

Availability:

Read on Scribd mobile: iPhone, iPad and Android.
download as DOC, PDF, TXT or read online from Scribd
See more
See less

06/02/2013

pdf

text

original

Abaixo de cada parte da tablatura está a parte referente ao hino

cantado, pra que se entenda melhor o tempo, que não tem como ser
mostrado em tablaturas.

E|-----------4---4-5-6--------------4---5!4-----
"|---5-4-5-------------5---5-4--5--------6--
#|-4-----------------------4---------------------
$|-----------------------------------------------
A|-----------------------------------------------
E|-----------------------------------------------
%&u'iram do (piran)a as mar)ens plácidas
$e um po'o her*ico o brado retumbante,%

E|--------------------+-,--------------------------
"|----6--,--.-,--.-----------6-,---.-,----.-+-,-
#|-6-------------------------6-----------------------
$|---------------------------------------------------
A|---------------------------------------------------
E|---------------------------------------------------
%E o /ol da liberdade, em raios f0l)idos,
"rilhou no c1u da pátria nesse instante.%

E|-------------------,------------------------------
"|-,-,--.-,-,--.-,-,------.--.-,-,-----------------
#|---------------------------------------,-,-+-+-6---
$|---------------------------------------------------
A|---------------------------------------------------
E|---------------------------------------------------
%/e o penhor dessa i)ualdade
2onse)uimos conquistar com bra3o forte,%

E|------------------6-------------------------------
"|---,---,-------,-,-------------------------
#|-----------------------------,-,-+-+-6-6-----------
$|-----------------------------------------,---------
A|---------------------------------------------------
E|---------------------------------------------------
%Em teu seio, * liberdade,
$esafia o nosso peito a pr*pria morte4%

E|-------5-------5-------5-5-
"|---4------4------4------
#|-4-------4-------4---------
$|---------------------------
A|---------------------------
E|---------------------------
%5 pátria amada,
(dolatrada,
/al'e4 /al'e4%

E|-----------4---4-5-6--------------4---5!4-----
"|---5-4-5-------------5---5-4--5--------6--
#|-4-----------------------4---------------------
f-----------------------------------------------
A|-----------------------------------------------
E|-----------------------------------------------
%"rasil, um sonho intenso, um raio '6'ido
$e amor e de esperan3a 7 terra desce,%

E|--------------------+-,--------------------------
"|----6--,--.-,--.-----------6-,---.-,----.-+-,-
#|-6-------------------------6-----------------------
f---------------------------------------------------
A|---------------------------------------------------
E|---------------------------------------------------
%/e em teu formoso c1u, risonho e l6mpido,
A ima)em do 2ru8eiro resplandece.%

E|---------------------5----------------------
------------------------,-
"|-5--5-4!5-4!5--5-5-----,--6!-6!-,------,--.-,-+!,-+!,--.-,-
,---
#|--------------------------------------------------------------------
---
$|--------------------------------------------------------------------
---
A|--------------------------------------------------------------------
---
E|--------------------------------------------------------------------
---
%#i)ante pela pr*pria nature8a,
9s belo, 1s forte, impá'ido colosso,
E o teu futuro espelha essa )rande8a,%

E|------------------5!4---------5-------
"|----.------4-5------4-5---------5-
#|----------,--------------------------
$|---------------------------------------
A|---------------------------------------
E|---------------------------------------
%:erra adorada,
Entre outras mil,
9s tu, "rasil,
5 ;átria amada%

E|-4-5-6---4-----5-4----------------
"|-------------5-------5-------4-5<<<-
#|---------------6-------6-4-6--------
$|------------------------------------
A|-----------corri)ido----------------
E|------------------------------------
%$os filhos deste solo 1s mãe )entil,
;átria amada,
"rasil4%
E|-----------4---4-5-6--------------4---5!4-----
"|---5-4-5-------------5---5-4--5--------6--
#|-4-----------------------4---------------------
$|-----------------------------------------------
A|-----------------------------------------------
E|-----------------------------------------------
%$eitado eternamente em ber3o esplendido
Ao som do mar e 7 lu8 do c1u profundo,%

E|--------------------+-,--------------------------
"|----6--,--.-,--.-----------6-,---.-,----.-+-,-
#|-6-------------------------6-----------------------
$|---------------------------------------------------
A|---------------------------------------------------
E|---------------------------------------------------
%=ul)uras * "rasil florão da Am1rica,
(luminado ao sol do no'o mundo.%

E|-------------------,------------------------------
"|-,-,--.-,--.-,-,--------.--.-,-,-----------------
#|---------------------------------------,-,-+-+-6---
$|---------------------------------------------------
A|---------------------------------------------------
E|---------------------------------------------------
%$o que a terra, mais )arrida
/eus risonhos limpos campos t>m mais flores,%

E|------------------6-------------------------------
"|---,--,---------,-,-------------------------
#|-----------------------------,-,-+-+-6-6-----------
$|-----------------------------------------,---------
A|---------------------------------------------------
E|---------------------------------------------------
%?ossos bosques, tem mais 'ida,
?ossa 'ida em teu seio mais amores4%

E|-------5-------5-------5-5-
"|---4------4------4------
#|-4-------4-------4---------
$|---------------------------
A|---------------------------
E|---------------------------
%5 pátria amada,
(dolatrada,
/al'e4 /al'e4%

E|-----------4---4-5-6--------------4---5!4-----
"|---5-4-5-------------5---5-4--5--------6--
#|-4-----------------------4---------------------
f-----------------------------------------------
A|-----------------------------------------------
E|-----------------------------------------------
%"rasil, de amor eterno, se@a s6mbolo
& lábaro que ostentas estrelado,%

E|--------------------+-,--------------------------
"|----6--,--.-,--.-----------6-,---.-,----.-+-,-
#|-6-------------------------6-----------------------
f---------------------------------------------------
A|---------------------------------------------------
E|---------------------------------------------------
%E di)a o 'erde louro desta flAmula,
;a8 no futuro e )l*ria no passado.%

E|---------------------5----------------------
------------------------,-
"|-5--5-4!5-4!5--5-5-----,--6!-6!-,------,--.-,-+!,-+!,--.-,-
,---
#|--------------------------------------------------------------------
---
$|--------------------------------------------------------------------
---
A|--------------------------------------------------------------------
---
E|--------------------------------------------------------------------
---
%Bas er)ues da @usti3a a )la'a forte,
Cera8 que um filho teu não fo@e a luta,
?em teme quem te adora a pr*pria morte,%

E|------------------5!4---------5-------
"|----.------4-5------4-5---------5-
#|----------,--------------------------
$|---------------------------------------
A|---------------------------------------
E|---------------------------------------
%:erra adorada,
Entre outras mil,
9s tu, "rasil,
5 ;átria amada%

E|-4-5-6---4-----5-4----------------
"|-------------5-------5-------4-5<<<-
#|---------------6-------6-4-6--------
$|------------------------------------
A|------------------------------------
E|------------------------------------
%$os filhos deste solo 1s mãe )entil,
;átria amada,
"rasil4%

$esfechoD

E|-,<<4---5-E-E----------------------
"|-------E-------4-5------------------
#|------------------------------------
$|------------------------------------
A|------------------------------------
E|------------------------------------

A imagem do Cruzeiro resplandece. Idolatrada. um raio vívido De amor e de esperança à terra desce. risonho e límpido." E|---------------------5---------------------7------------------------9B|-5-7-5-4^5-4^5-7-5-5----7-9-7-6^7-6^7-9-7-7----9-10-9-8^9-8^9-10-99--G|---------------------------------------------------------------------D|---------------------------------------------------------------------A|---------------------------------------------------------------------E|---------------------------------------------------------------------"Gigante pela própria natureza.E|-------5-------5-------5-5B|---4-7-----4-7-----4-7----G|-4-------4-------4--------D|--------------------------A|--------------------------E|--------------------------"Ó pátria amada. um sonho intenso. ." E|-------------------7-8-9------------------7-------B|---7-6-7-9-10-9-10-------7---7-6-9-7-10-9---10-8-9G|-6-------------------------6----------------------f--------------------------------------------------A|--------------------------------------------------E|--------------------------------------------------"Se em teu formoso céu. Salve! Salve!" E|-----------4---4-5-6-7-------------4---5^4----B|---5-4-5-7---7---------5---5-4-7-5---7-----6-7G|-4-----------------------4--------------------f----------------------------------------------A|----------------------------------------------E|----------------------------------------------"Brasil.

You're Reading a Free Preview

Descarregar
scribd
/*********** DO NOT ALTER ANYTHING BELOW THIS LINE ! ************/ var s_code=s.t();if(s_code)document.write(s_code)//-->