Você está na página 1de 3

Alfonsina y el mar - Ariel Ramirez

**********************************
Arranged by Jorge Villar (?) based on arrangement by Ramon Jos Verdi (?)
Tabbed by Amauri Mendes - amaujo@bol.com.br
------------------------------------------------------------------------------measures 1 and 5 last note changed from G (1st string 3rd fret) to A# (1st string, 6th fret)
* changed back to G (2nd string 8th fret) - Nov 04
measures 2 and 6 last note changed from G (2nd string 8th fret) to G# (2nd string, 9th fret)
info from Adrian Bogusz - guitarra@op.pl - 20 September 2004
------------------------------------------------------------------------------amended to RJ Verdi version as per suggestions of Rob Boellaard (November 2004)
(first half of piece only)
------------------------------------------------------------------------------0
*
|------------------------|--7-----------7---------|------------------------|
|---------------------8--|--------8------------9--|-10---7------10---------|
|------------------------|----------9-------------|--------8---------------|
|------------------------|-----------9------------|----------9-------------|
|------------------------|------------------------|------------------------|
|------------------------|--0--0--------0----0----|-7--7-----------7-------|
3
*
|--3-2--0--2-----0-------|-0----------------------|-7-----------7----------|
|--1---------5-4-0----0--|---------------------8--|-------8------------9---|
|--0-------2-----0----0--|----------0-------------|---------9--------------|
|------------------------|----------2-------------|----------9-------------|
|--3-------2----------2--|----------2-------------|------------------------|
|----------------0--3----|-0----------------------|-0--0--------0----0-----|
6
|------------------------|--3-2--0--2-----0-------|-0---------------0------|
|-10---7------10---------|--1---------5-4-0----0--|-----------------0------|
|--------8---------------|--0-------2-----0----0--|--------0--------0------|
|----------9-------------|------------------------|--------2--------2------|
|------------------------|--3-------2----------2--|--------2--------2------|
|-7--7-----------7-------|----------------0--3----|-0---------------0------|
9
|----0-1-0--1--0---0-------|-----------5-7-8-7------|
|--3--------2----3-0--3-1--|------------------------|
|*----------3------1----4--|------------------------|
|*----------0------2----2--|------0-2---------------|
|-----------------------0--|--2-3-------------------|
|--------------------------|------------------------|
11
|--8-----7-5----7-----------|------------------------|-0-2-3-2-3------2-3-|
|------5-----5-----------10-|-----8------------------|--------------------|
|----5-----------------8----|--8----9----9---8-7-----|-------------0------|
|--------------------7------|---------9----9---9-----|-----------2--------|
|--0---------------9--------|------------------------|---------0----------|
|---------------7-----------|-----0------------------|--------------------|
14

|---5-----3-5----7------5-3-|----5--3-2--3------0-2-0|-2----------0---------|
|-------3-------------0-----|-3--5------------0------|---5-4----4-4---------|
|-5---5-------5-----7-------|----5----------0--------|--------2---4---------|
|---4------------5----------|------------------------|----------------------|
|---------------------------|----0-------------------|-2----------------2---|
|---------------------------|------------0-----------|------------0--4----0-|
17
|-5-7-8-7--8------7-8----|14----------12----|-7---------------5-----|
|---------------5-----5--|---13----13----13-|-----8----10--8-----5--|
|-------------5----------|------14-------14-|---9---9------------5--|
|------------------------|0-----------------|-----------------------|
|----------0-------------|------------------|-----------------------|
|------------------------|------------------|-0---------------------|
20 1:vez
2:vez
|-3--2---0---2-------0---|-0-----------0-2-3-2-3--|--2-3--5--2-------------|
|-5--4---0---4-------0---|-0----0--------------1--|-------3----3--0--------|
|-4--2---0---2-------0--*|-0----0--------------2--|-------5----------------|
|-----------------------*|---------2--------------|-------0----------0---0-|
|--------0---2--3--2-----|------2--------------0--|------------------2-----|
|-0--0---------------0---|-0--3--------0----------|---------------3----3---|
43
|---------------------------|---------------0-------|-5-7-8-7-5---12--10--8--|
|-------------0-----0-----0-|-------------1-----1---|-------------13--12--10-|
|-----------2-----2-----1---|---0-------2-----2-----|------------------------|
|-----0-2-3-----2-----0-----|--------2--------------|------------------------|
|-2-3-----------------------|-3----2---------------0|---------0--------------|
|---------------------------|-----------------------|------------------------|
46
|-7--5---3---------0---2p0-----------------2-1-3-2-1-------------0-|
|-8--7---5--0----0---4------4------------------------0---0-------3-|
|-----------0----0------------2---2---2----------------1-----1---0-|
|--------------2----------------4---4--------------0-------0-----3-|
|---------------------------2------------2-----------------------3-|
|--------0-------------------------------------------------------0-|
47
|-12-10--8----12--10---8-|--7--5--3--5-7-----8----|-7--8-----9--8--9-------|
|-13-12--10---13--12---10|--8--7--5----------10---|----------8-------------|
|------------------------|-------------------9----|----------9-------------|
|------------------------|------------------------|-------8-----------9----|
|--------0---------------|----------------0-------|------------------------|
|------------------------|--------0---------------|------------------------|
50
|-11--9--11--12------|--0-0--10-10-8---8---7-7-|-5-5--3-3--2-2--8--8----|
|-10----------0------|-------12-12-10--10--8-8-|-7-7--5-5--3-3--10-10---|
|-11----------0------|*------------------------|--------------------0---|
|--------------------|*------------------------|---0--------------------|
|--------------------|----------0--------------|------------------------|
|-------------0------|-------------------------|------------------------|
53
|-7-7--5-5--3-3--5-5--7-7|--8--8-----------------|----------7-----0-0--10-10|
|-8-8--7-7--5-5--7-7--8-8|-10-10-----------------|-7-8--10------------------|
|------------------------|---------9-11p9--8-----|--------------------------|
|------------------------|--------------------7--|--------------------------|

|------------------------|-----0--------------9--|--------------------------|
|-------------0----------|-----------------7-----|----------0--0------------|
56
|-8--17--15--15--13-13--|-12--12--10-10--8---8---|-7-7--5-5--3-3--5-5--7-7---|
|----------------15-15--|-13--13--12-12--10--10--|-8-8--7-7--5-5--7-7--8--8--|
|-----------------------|------------------------|----------------8-8--10-10-|
|-------------------0---|------------------------|---------------------------|
|-----------------------|------------------------|---------------------------|
|-----------------------|--------------------0---|-------------0-------------|
59
|-5-5--2-2--0-0----------|-------------------------|----------------------7-|
|-7-7--5-5--1-1--1--1----|-------------------------|------------------------|
|----------------3--3--3-|-3-----------------------|-------------------8----|
|----------------------4-|-4--4--4---2--2----------|------------------------|
|-------------0----------|----7--7---3--3--3-3-----|-3-3--3-3-----9---------|
|------------------------|-------5---------6-6-----|-6-6--6-6--7------------|
62
|---------0----0-1-0---0-||
|---------0--3---------0-||
|--4h5p4--0----------*-0-||
|---------2----------*-2-||
|---------2------------2-||
|---------0------------0-||