Você está na página 1de 4

Pitty - Equalize | Cifra Club (Impresso)

1 de 4

http://www.cifraclub.com.br/pitty/equalize/swskjg/imprimir.html

Equalize
Pitty
Tom: D
Intro:
E|------------------------------------------------3-2-------|
B|--------------3-----------3-----------------3---3---3-----|
G|--------0--4-----------------4--------0--4------2-----2---|
D|--2--4-----------2--4--5--------2--4------------0-------0-|
A|----------------------------------------------------------|
E|----------------------------------------------------------|

D
A
Bm
s vezes se eu me destraio
Em
Se eu no me vigio um instante
D
F#m
Me transporto pra perto de voc!
A
Bm
J vi que no posso ficar to solta que
Em
Me vem logo aquele cheiro
F#m
Que passa de voc pra mim
Em
G
A
Num fluxo perfeito.
Enquanto voc conversa e me beija
Ao mesmo tempo eu vejo
Em
D
As suas cores no seu olho, to de perto
Me balano devagar, como quando voc me embala
A
Bm
G
O ritmo rola fcil, parece que foi ensaiado.
G
A
E eu acho que eu gosto mesmo de voc
D
Gm
Bem do jeito que voc .

22/06/2011 23:42

Pitty - Equalize | Cifra Club (Impresso)

2 de 4

Bm
D
Bm
Eu vou equalizar voc
Bm
A
D
G
Numa freqncia que s a gente sabe
D
Bm
D
Bm
D
Eu te transformei nessa cano

http://www.cifraclub.com.br/pitty/equalize/swskjg/imprimir.html

Bm
G
A
Pra poder te gravar em mim.
(Riff 1)
A
Bm
D
Adoro essa sua cara de sono
Em
E o timbre da sua voz
D
F#m
Que fica me dizendo coisas to malucas
A
Bm
E que quase me mata de rir
Em
Quando tenta me convencer
F#m
Que eu s fiquei aqui
G
A
Em
Porque ns dois somos iguais
At parece que voc j tinha
O meu Manual de Instrues
Em
D
Porque voc decifra os meus sonhos
Porque voc sabe o que eu gosto
G
Em
A
E porque quando voc me abraa, o mundo gira devagar.
Em
D
E o tempo s meu e ningum registra a cena
D
Bm
De repente vira um filme, todo em cmera lenta

22/06/2011 23:42

Pitty - Equalize | Cifra Club (Impresso)

3 de 4

http://www.cifraclub.com.br/pitty/equalize/swskjg/imprimir.html

A
G
E eu acho que eu gosto mesmo de voc
Gm
Bem do jeito que voc .
Bm
D
Bm
Eu vou equalizar voc
Bm
A
D
G
Numa freqncia que s a gente sabe
Bm
D
Bm
D
D
Eu te transformei nessa cano
Bm
A
G
Pra poder te gravar em mim.
Bm
D
Bm
Eu vou equalizar voc
Bm
A
D
G
Numa freqncia que s a gente sabe
Bm
D
D
Bm
D
Eu te transformei nessa cano
Bm
A
G
Pra poder te gravar em mim.
Riff Final:

E|----------------------------------|----------------------------------|
B|----------------------------------|----------------------------------|
G|--------------------------------7-|--------------------------------7-|
D|-----------------------7-7-7-9----|-----------------------7-7-7-9----|
A|--------------5-5-7/9-------------|--------------5-5-7/9-------------|
E|--3--3-3-5/7----------------------|--3--3-3-5/7----------------------|
E|------------------------------------------------|
B|---------------------------------------------15-|
G|----------------------------------7--7/11-------|
D|-----------------------7--7--7--9---------------|
A|--------------5-5-7/9---------------------------|
E|--3--3-3-5/7------------------------------------|

22/06/2011 23:42

Pitty - Equalize | Cifra Club (Impresso)

4 de 4

http://www.cifraclub.com.br/pitty/equalize/swskjg/imprimir.html

Bm

F#m

Gm

Em

22/06/2011 23:42

Interesses relacionados