Você está na página 1de 2

Intro:

.....................F..................Dm........ ........
e------------10h13-|-------------------|------------------|
b------10>13-------|10b----------------|------------------|
g------------------|-------(12^14v12<7)|-7---------7>9-12-|
d------------------|-------------------|--7-7->11---------|
a------------------|-------------------|------------------|
E------------------|-------------------|------------------|
..C................................Bbsus2......... ..........Csus2
e---------------------------------|-----------------------|-10--13-13-13>15
b-10-13-13--13h15-15p13-13<10-10<9|----------------8>10-13|---------------g---------------------------------|-10--10h12p10----------|---------------d---------------------------------|-----------------------|---------------a---------------------------------|-----------------------|---------------E---------------------------------|-----------------------|---------------h = hammer-on. > = slide right. < = slide left
p = pull-off. ^ = bend upto next note. v = bend back
( ) would be in a single stroke. b = expression bend
--F------------------------Dm
o mou tumi jano na je majhrate
------------------C
ekgheye ei bichanate
------------------Bbsus2--C--aajo kotha boli kar sathe mm mm
F-------------------------C#--jibon cholche na aar soja pothe
---------------------Bb
dekho ajo hasi kono mote
-----------------------F
benche gechi boli hote hote
hoyto more gele hoto besi bhalo
keno eto sukh chere gelo
-------------------C-jiboner sera smitigulo wa aah
Dm------------------Sriti ese roj dorjate
-----Eb------------------kora nare aar hath pate
G#-------Eb---------------Bb....aar bhenge pore kannate
foot pathe hoye dishehara
tar bhoye hoi ghor chara
di polayone askara
-C-amay
Lead:
....................F..............Am............. ...............

e------------------|---13-13------|-12>13-10--------------------|
b----------8<6-6h8>|10------------|----------13-11p10-----------|
g---5>7-10---------|--------------|-------------------12--10>12-|
d------------------|--------------|-----------------------------|
a------------------|--------------|-----------------------------|
E------------------|--------------|-----------------------------|
...Dm
----------------------|-----------------------------------------|
---15<13--15<13--13^15|(6 strokes while v)13-----10h11p10-------|
----------------------|----------------------------------12-10--|
----------------------|---------------------------------------12|
----------------------|-----------------------------------------|
----------------------|-----------------------------------------|
..Bb...............Am.............Gm
--------------------------------|-------------------------------|
----------------------13--13>15-|15-15<13-13<11-11<10-----------|
--------10-12-10-12>14----------|--------------------10-10h12-10|
--10-12-------------------------|-------------------------------|
12------------------------------|-------------------------------|
--------------------------------|-------------------------------|
..Csus2
--17--20-15b----------|-17-17-20-20-----------------------|
-----------------18-18|-------------20b-------------------|
----------------------|-----------------------------------|
----------------------|-----------------------------------|
----------------------|-----------------------------------|
----------------------|-----------------------------------|