Você está na página 1de 2

Sinais

om: A
Capotraste na 3 casa
(violo 1)
(capo

3 casa)

(solo intro)
(primeira parte)
esconder tablatura
E|-8-----3--------------------------------------------|
B|---3-----3---6-----5-----3---5----------------------|
G|-----5-----5---5-5---5-5---5---5--------------------|
D|----------------------------------------------------|
A|----------------------------------------------------|
E|----------------------------------------------------|

(3x)

esconder tablatura
E|-8-----3------3--3----------------------------------|
B|---3-----3----6--6----------------------------------|
G|-----5-----5--5--5----------------------------------|
D|----------------------------------------------------|
A|----------------------------------------------------|
E|----------------------------------------------------|
(segunda parte)
esconder tablatura
E|-8-8-8--3-3-3--3-3-3--3-3-3--3-3--3-3---------------|
B|-3-3-3--3-3-3--6-6-6--5-5-5--3-3--5-5---------------|
G|-5-5-5--5-5-5--5-5-5--5-5-5--5-5--5-5---------------|
D|----------------------------------------------------|
A|----------------------------------------------------|
E|----------------------------------------------------|
esconder tablatura
E|-8-8-8--3-3-3--3-3----------------------------------|
B|-3-3-3--3-3-3--6-6----------------------------------|
G|-5-5-5--5-5-5--5-5----------------------------------|
D|----------------------------------------------------|
A|----------------------------------------------------|
E|----------------------------------------------------|
(primeira parte)
A9
F#m7(11)
Vi seu sorriso em meu sonho
D9
E
Segui seu rastro na areia do deserto
A9
F#m7(11)
Eu escutei sua voz ao vento
D9
E
Senti seu cheiro cada vez de mim mais perto
F#m7(11)
E
Virei um louco meio obsecado
D9

(3x)

Pra te encontrar em algum lugar do mundo


F#m7(11)
E
E mesmo sem nunca ter te tocado
D9
Bm
E
Me pertencia bem l no fundo
(pr-refro)
D9
F#m7(11)
Sinais, me mostraram o caminho at voc
D9
Vagalumes guiam-me sem perceber
Bm
E
E no fim da estrada uma luz parece ser voc
(refro)
A9
E
F#m7(11)
D9
Sinais, me ajudaram a perceber o meu caminho voc
D9/C# Bm
E
E ningum no mundo vai fazer eu me sentir denovo assim

D9

A9
E
F#m7(11)
D9
Sinais, vindos de um lugar to longe s vezes se encondem
D9/C# Bm
E
No
farol em uma ilha, numa noite to vazia eu beijei voc
A9
At o amanhecer...