Você está na página 1de 109

© 2008 by Tablat32 – Cópias somente com autorização

Disco Nº Tempo Nome Início Tom Pág.


UM 01 00:45 A jibóia A jibóia me falou E
UM 02 00:42 A Ti, Senhor. A Ti, Senhor, elevo a minha. E
UM 03 02:08 Adoramos o Cordeiro Adoramos o Cordeiro D
UM 04 01:35 Alfa e Ômega Tu que estás
UM 05 01:45 Alto preço Eu sei que foi pago
UM 06 01:45 Ao único Ao único que é digno
UM 07 01:45 Bem querer És o meu bem querer, meu mestre
UM 08 01:30 Bom estarmos aqui Bom estarmos aqui louvando a Deus
UM 09 01:06 Brilha Jesus Vejo a luz do Senhor que brilha
UM 10 01:05 Celebrai Celebrai a Cristo
UM 11 01:05 Com meus lábios Com meus lábios e minha
UM 12 01:35 Como é precioso Como é preciso irmão, estar bem junto
UM 13 01:45 Corpo e Família Recebi um novo coração do Pai
UM 14 00:45 Deus está aqui Deus está aqui, aleluia
UM 15 01:00 Ele é exaltado Ele é exaltado, o rei exaltado
UM 16 01:05 Espírito, enche Espírito, enche a minha vida
UM 17 01:50 Estrela da manhã És a nossa estrela da manhã
UM 18 01:00 Eu quero ser um vaso novo Eu quero ser Senhor amado
UM 19 01:20 Eu só confio Eu só confio no Senhor que não vai
UM 20 01:55 Eu te louvarei És tu única esperança
UM 21 00:50 Eu vejo a glória Eu vejo a glória do Senhor hoje aqui
UM 22 00:40 Exaltar-te-ei Exaltar-te-ei ó Deus
UM 23 01:00 Faz-me chegar Faz-me chegar aos teus rios, Senhor
UM 24 01:00 Flua em mim Flua em mim Senhor a tua graça
UM 25 01:10 Há momentos Há momentos que na vida
UM 26 00:40 Hoje é tempo Hoje é tempo de louvar a Deus
UM 27 01:25 Igreja Estamos todos congregados aqui
UM 28 01:45 Jesus Cristo mudou Jesus Cristo mudou meu viver
UM 29 01:55 Jesus em tua presença Jesus em tua presença reunimos aqui
UM 30 01:19 Jesus te entronizamos Jesus te entronizamos, declaramos que és
rei
UM 31 01:35 Jesus virá mais outra vez Num dia lindo almejo eu encontrar
aqui
UM 32 02:00 Maravilhoso Quão formoso és, rei do universo
UM 33 01:05 Meu coração Meu coração transborda de paz
UM 34 01:30 Move as águas Tanto tempo esperei, chegou a minha vez
UM 35 01:15 Não há Deus maior Não há Deus maior
UM 36 01:30 Não vou calar meus lábios Não vou calar meus lábios vou profetizar
UM 37 01:12 Nosso general Pelo Senhor, marchamos sim
UM 38 00:55 O exército de Deus Já posso escutar o exército de Deus
UM 39 00:38 O nome de Jesus O nome de Jesus é poderoso
UM 40 00:35 O trenzinho comilão O trenzinho desceu a colina
UM 41 00:35 O sabão O sabão lava o meu rostinho
UM 42 01:40 Oferta de amor Venho Senhor minha vida oferecer
UM 43 01:33 Oração da família Que nenhuma família comece assim de repente
UM 44 01:45 Primeiro amor Quero voltar ao início de tudo
UM 45 01:00 Quão bom e maravilhoso Quão bom e quão maravilhoso é que os irmãos
UM 46 01:15 Quero louvar-te Quero louvar-te sempre mais e mais
UM 47 01:48 Rei das nações Grande são as tuas obras Senhor todo pode-
roso
UM 48 01:18 Renova-me Renova-me, Senhor Jesus já não quero ser
igual
UM 49 01:50 Rompendo em fé Cada vez que a minha fé é provada
UM 50 01:02 Santo Espírito Santo Espírito enche a minha vida Am
UM 51 01:35 Satisfação Satisfação é ter a Cristo
UM 52 01:15 Se começarmos a orar Se começarmos a orar, este templo treme
UM 53 01:25 Segura na mão de Deus Se as águas do mar da vida quiserem te afo- E
gar
UM 54 01:30 Seja engrandecido Seja engrandecido, ó Deus da minha vida
UM 55 01:05 Senhor formoso és Senhor formoso és, tua face eu quero ver
UM 56 01:20 Te agradeço Por tudo o que tens feito, por tudo o que
vais fazer
UM 57 01:15 Tudo que Jesus conquistou Tudo que Jesus conquistou na cruz é direito
nosso é nossa herança
UM 58 01:40 Vamos adorar a Deus Vamos adorar a Deus Ao que está assentado
UM 59 01:08 Vem com Josué Vem com Josué lutar em Jericó
UM 60 01:30 Ventos de avivamento O meu coração tem anseio de ver tua glória
UM TT 79:04
DOIS 01 00:55 SH 001 O servo do Senhor Quão bem-aventurado o Servo do Senhor G
DOIS 02 01:30 SH 007 O fiel Pastor Bom e fiel pastor é meu E
DOIS 03 01:20 SH 024 O socorro do crente Para os altos montes olharei G
DOIS 04 01:30 SH 029 Invocação Eterno Pai teu povo congregado D
DOIS 05 01:20 SH 051 Deus cuidará de ti Não desanimes ó coração Bb
DOIS 06 01:25 SH 064 Deus dos antigos Deus dos antigos cuja forte mão Eb
DOIS 07 01:30 SH 065 Grandioso és Tu Senhor meu Deus, quando eu maravilhado Bb
DOIS 08 01:08 SH 069 Vós criaturas Vós criaturas de Deus Pai Eb
DOIS 09 01:25 SH 070 Tuas obras te coroam Tuas obras te coroam como um halo de es- G
plendor
DOIS 10 01:40 SH 073 Vinde fiéis Oh! Vinde fiéis triunfantes alegres Ab
DOIS 11 01:05 SH 074 Noite de paz Noite de paz! Noite de amor C
DOIS 12 02:15 SH 075 Nasce Jesus Nasce Jesus! Fonte de luz C
DOIS 13 01:40 SH 076 Eis dos anjos a har- Eis dos anjos a harmonia G
monia
DOIS 14 01:40 SH 079 Glória Surgem anjos proclamando G
DOIS 15 01:25 SH 089 O primeiro Natal Ah! Um anjo proclamou o primeiro natal D
DOIS 16 01:25 SH 095 A história de Cristo Conta-me a história de Cristo Eb

Esta é a página - 1 -
© Copyright by Sandro Rogério Martins – Todos os direitos reservados.“A rapadura é mole, mas não é doce. Pensou que ia ser moleza!” Nada é fácil nesta vida.

DOIS 17 01:00 SH 098 Cantai e folgai Cantai e folgai, o Messias chegou G


DOIS 18 02:20 SH 102 Sossegai Mestre, o mar se revolta e as ondas nos dão C
pavor
DOIS 19 01:30 SH 110 A mensagem da cruz No calvário se ergueu uma cruz contra o céu Bb
DOIS 20 01:40 SH 125 A Vitória final Quando lá dos céus descendo para os seus Ab
DOIS 21 01:20 SH 126 Cristo não tarda a Cristo mui breve do céu virá Bb
voltar
DOIS 22 01:40 SH 131 O Dia de Cristo A noite termina a aurora já vem Eb
DOIS 23 02:00 SH 138 Achei um bom amigo Achei um bom amigo, Jesus o Salvador F
DOIS 24 01:40 SH 140 Bondoso amigo Quão bondoso amigo é Cristo F
DOIS 25 01:15 SH 153 Morri na cruz por ti Morri na cruz por ti, morri C
DOIS 26 01:05 SH 168 Senhor, eu preciso Eu creio Senhor na divina promessa F
de ti
DOIS 27 01:18 SH 170 Careço de Jesus Careço de Jesus Ab
DOIS 28 01:40 SH 172 Abrigo no temporal Rochedo forte é meu Senhor F
DOIS 29 01:25 SH 183 Contemplação de Deus Se nos cega o sol radiante Eb
DOIS 30 01:25 SH 184 Coração em paz Vindo sombras Eb
DOIS 31 01:25 SH 216 Vem, espírito divino Vem espírito divino grande ensinador Ab
DOIS 32 01:30 SH 231 Coroai! Saudai o nome de Jesus Ab
DOIS 33 01:20 SH 232 Ao Deus de Abraão Ao Deus de Abrão louvai Ab
DOIS 34 01:55 SH 233 O grande amor de A Deus demos glória por teu grande amor Ab
Deus
DOIS 35 01:30 SH 234 Exultação e louvor Conosco agora vinde Eb
DOIS 36 01:55 SH 244 Mil vezes, mil lou- Mil vezes mil louvores rendamos a Jesus G
vores.
DOIS 37 01:50 SH 246 O rei sublime Ó rei sublime em majestade e glória Eb
DOIS 38 01:40 SH 247 Santo! Santo! Santo! Santo! Santo! Santo! Deus onipotente Eb
DOIS 39 01:10 SH 248 Louvamos-te, ó Deus. Louvamos-te ó Deus, pelos dons de Jesus Bb
DOIS 40 00:50 SH 260 Invocação para a Enquanto ó salvador aqui Eb
Leitura Bíblica
DOIS 41 02:05 SH 273 As novas do Evange- As novas do Evangelho ressoando estão aqui E
lho
DOIS 42 01:15 SH 274 Palavras de Vida Repeti-mas outra vez estas palavras de vida G
DOIS 43 01:30 SH 282 Manso e Suave Manso e suave eis Jesus nos chamando Ab
DOIS 44 02:05 SH 284 A última hora Ao findar o labor desta vida F
DOIS 45 01:35 SH 287 Mensagem do Senhor Eis mensagem do Senhor aleluia G
DOIS 46 01:35 SH 302 Deixa o Sol em ti Medo tens que o inimigo vá vencer Ab
nascer
DOIS 47 01:35 SH 303 A Mensagem real Sou forasteiro aqui em terra estranha estou E
DOIS 48 02:25 SH 309 Como há de ser Como há de ser conclusa a longa lida C
DOIS 49 01:35 SH 317 Redenção pela cruz Oh! Bem cego eu andei E
DOIS 50 01:35 SH 335 Tudo entregarei Tudoa a ti Jesus, entrego D
DOIS 51 01:30 SH 336 Mais perto da cruz Meu Senhor sou teu tua voz ouvi Ab
DOIS 52 01:25 SH 337 Maior amor a ti. Maior amor a ti maior amor Ab
DOIS TT 79:46
TRÊS 01 01:03 SH 338 Mais de Cristo Mais de Cristo eu quero ser Ab
TRÊS 02 01:18 SH 341 Vaso de bênção Quero ser um vaso de bênção Bb
TRÊS 03 02:05 SH 344 Fala à minha alma Fala à minha alma ó Cristo, fala me com Eb
favor
TRÊS 04 01:05 SH 354 Tempo de ser santo Tempo de ser santo tu deves F
TRÊS 05 01:35 SH 360 Mais perto quero Mais perto quero estar meu Deus de ti G
estar
TRÊS 06 01:23 SH 362 Ao pé da cruz Quero estar ao pé da cruz F
TRÊS 07 01:22 SH 369 Quero o salvador Quero o Salvador comigo D
comigo
TRÊS 08 01:35 SH 377 Glória, glória, ale- Quando à alma sequiosa chega a voz do Sal- Bb
luia! vador.
TRÊS 09 01:30 SH 379 Conta as muitas bên- Se da vida as vagas procelosas são Eb
çãos
TRÊS 10 01:27 SH 381 Grata Memória Nunca meus lábios cessarão ó Cristo Ab
TRÊS 11 01:20 SH 386 Dia Feliz Oh dia alegre eu abracei G
TRÊS 12 01:08 SH 387 O céu com Cristo Depois que Cristo me salvou em céu o mundo Ab
TRÊS 13 01:30 SH 389 Promessa bendita Peregrinando por sobre os montes G
TRÊS 14 01:18 SH 391 Salvação em Cristo Jesus agora sim eu sei, quão grande F
TRÊS 15 01:25 SH 395 Nome precioso Leva tu contigo o nome de Jesus o Salvador Ab
TRÊS 16 01:05 SH 400 Deus buscou-me Eu nas trevas caminhando G
TRÊS 17 01:30 SH 409 Segurança bendita Que segurança sou de Jesus D
TRÊS 18 01:25 SH 412 Confiança Não sei porque de Deus o amor Eb
TRÊS 19 01:35 SH 423 Segurança do crente Cristo bom mestre G
TRÊS 20 01:22 SH 428 Redentor Onipotente Redentor Onipotente poderoso salvador F
TRÊS 21 01:28 SH 433 A Excelência do amor Qual o adorno desta vida, é o amor, é o D
amor
TRÊS 22 01:25 SH 435 Fidelidade Por meus delitos expirou F
TRÊS 23 02:05 SH 438 Alvo mais que a neve Seja bendito o cordeiro que na cruz por nós D
padeceu
TRÊS 24 01:27 SH 439 Crer e observar Em Jesus confiar, sua lei observar F
TRÊS 25 01:28 SH 440 Trabalho Cristão Vamos nós trabalhar, somos servos de Deus Eb
TRÊS 26 01:25 SH 443 Avante, ó crentes. Avante, avante ó crentes, soldados de Jesus Bb
TRÊS 27 02:00 SH 455 Igreja, alerta! É tempo, é tempo, o mestre C
TRÊS 28 01:25 SH 456 Quem irá? Eis os milhões que em trevas tão medonhas A
TRÊS 29 01:25 SH 466 O pendão real Um pendão real vos entregou orei Ab
TRÊS 30 02:37 SH 475 Acordai! Eis manchamos para aquele bom país G
TRÊS 31 01:25 SH 485 O júbilo dos anjos Oh! Que belos hinos cantam lá nos céus Ab
TRÊS 32 01:10 SH 486 Vigiar e Orar Bem de manhã, embora o céu sereno C
TRÊS 33 01:36 SH 488 Hora bendita Bendita a hora de oração que acalma o afli- D
to
TRÊS 34 01:33 SH 489 Comunhão Preciosa Preciosa são as horas na presença de Jesus G

Esta é a página - 2 -
© 2008 by Tablat32 – Cópias somente com autorização

TRÊS 35 01:15 SH 510 Chuvas de bênçãos Chuvas de bênçãos terão Bb


TRÊS 36 01:15 SH 514 Súplica de consagra- Meu pecado resgatado foi na cruz por meu Eb
ção
TRÊS 37 01:30 SH 536 A igreja militante Eis a escrava resgatada, grande preço Eb
TRÊS 38 01:10 SH 552 Fortalece a tua i- Fortalece a tua igreja ó bendito Salvador Ab
greja
TRÊS 39 01:30 SH 566 Hei de vê-lo Finda a lida acabando Ab
TRÊS 40 01:30 SH 570 Junto ao trono de Junto ao trono de Deus preparado C
Deus
TRÊS 41 01:30 SH 585 Bela terra Na bela terra G
TRÊS 42 01:35 SH 592 Anelos do céu Da linda pátria estou bem longe D
TRÊS 43 01:15 SH 595 Brilhando por Jesus Vejo um céu esplendente do sol a clara luz G
TRÊS 44 01:30 SH 609 Convite aos meninos Vinde, meninos, vinde a Jesus Bb
TRÊS 45 01:36 SH 640 Castelo forte Castelo forte é nosso Deus espada e bom D
escudo
TRÊS 46 01:35 SH 650 Despedida Deus vos guarde pelo seu amor C
TRÊS 47 02:15 HC 212 Os guerreiros Os guerreiros se preparam para a grande Bb
luta
TRÊS 48 01:35 HC 301 Vem cear Cristo já nos preparou um manjar que nos C
TRÊS 49 02:05 HC 467 Sobre as ondas Oh, porque duvidar sobre as ondas do mar G
TRÊS 50 02:28 HC 545 Porque ele vive Deus enviou, seu filho amado Ab
TRÊS 51 02:15 HC 577 Em fervente oração. Em fervente oração, vem o meu coração. F
TRÊS TT 78:19

Esta é a página - 3 -
© Copyright by Sandro Rogério Martins – Todos os direitos reservados.“A rapadura é mole, mas não é doce. Pensou que ia ser moleza!” Nada é fácil nesta vida.

1-01 - A jibóia
Tom: E maior

1 | | | | | | | | | | | | | | | |
E |---------|-----0-0-|-0-0---0-|-2-----|---------|-2-2-2-2-|-2-2-0---|-4-----|
B |-----0-0-|-5-5-----|-----4---|-----0-|-----0-0-|---------|-------7-|-----5-|
G |---------|---------|---------|-------|---------|---------|---------|-------|
D |---------|---------|---------|-------|---------|---------|---------|-------|
A |---------|---------|---------|-------|---------|---------|---------|-------|
E |---------|---------|---------|-------|---------|---------|---------|-------|>

9 | | | | | | | | | | | | | | | |
E |---------|-5-5-5-5-|-5-5-5-4-|-4-----|-------4-|-------4-|---------|-------|
B |-----5-5-|---------|---------|-----5-|-----5---|-7-7-7---|-7-5-4---|-------|
G |---------|---------|---------|-------|---------|---------|-------6-|-4---4-|
D |---------|---------|---------|-------|---------|---------|---------|-------|
A |---------|---------|---------|-------|---------|---------|---------|-------|
E |---------|---------|---------|-------|---------|---------|---------|-------|>

17 | | | | | | | | | | | | | | | |
E |---------|-5-5-5-5-|-5-5-5-4-|-4-----|-------4-|-2-2-2-4-|-2-----2-|-0---0-|
B |-----5-5-|---------|---------|-----5-|-----5---|---------|---5-4---|-------|
G |---------|---------|---------|-------|---------|---------|---------|-------|
D |---------|---------|---------|-------|---------|---------|---------|-------|
A |---------|---------|---------|-------|---------|---------|---------|-------|
E |---------|---------|---------|-------|---------|---------|---------|-------|.

1-02 - A Ti, Senhor


Tom: E maior

1 | | | | | | | | | | | | | | | | | | | |
E |-----4---4-----|--------------|--4--4-4-5----4-|-4-2----------|-----2---2-----|
B |-------------5-|-0------------|----------------|--------------|-------------4-|
G |---------------|--------------|----------------|--------------|---------------|
D |---------------|--------------|----------------|--------------|---------------|
A |---------------|--------------|----------------|--------------|---------------|
E |---------------|--------------|----------------|--------------|---------------|>>

6 | | | | | | | | | | | | | | | | | | | |
E |--------------|--7--7-7-7----5-|-5---4--------|---------4-----|--------------|
B |-0------------|----------------|--------------|-------------5-|-0------------|
G |--------------|----------------|--------------|---------------|--------------|
D |--------------|----------------|--------------|---------------|--------------|
A |--------------|----------------|--------------|---------------|--------------|
E |--------------|----------------|--------------|---------------|--------------|>

11 | | | | | | | | | | | | | | | |
E |-----7---9----7-|-7-5----------|-----5-5-------|-4---4-4-5---4-|
B |----------------|--------------|---------5---7-|---------------|
G |----------------|--------------|---------------|---------------|
D |----------------|--------------|---------------|---------------|
A |----------------|--------------|---------------|---------------|
E |----------------|--------------|---------------|---------------|>

15 | | | | | | | |
E |-----5---4------|-----0--------|
B |-7------------7-|-7------------|
G |----------------|--------------|
D |----------------|--------------|
A |----------------|--------------|
E |----------------|--------------|.

Esta é a página - 4 -
© 2008 by Tablat32 – Cópias somente com autorização

1-03 - Adoramos o Cordeiro


Tom: D maior

1 | | | | | | | | | | | | | | | |
E |-2---2---2---0-|-------------------|-2---2---2---0-|---------------------|
B |-3---3---3---2-|-3-----------3-----|-3---3---3---2-|-3---------------3---|
G |---------------|-4-----------2-4-2-|---------------|-4--------2--2-4---4-|
D |---------------|-------------------|---------------|---------------------|
A |---------------|-------------------|---------------|---------------------|
E |---------------|-------------------|---------------|---------------------|>>

5 | | | | | | | | | | | | | | | |
E |-----2-2-2-0---0-|-------2--0---|-----2-2-2-0---0-|--2---0-----0-2-|
B |-3-----------3---|-----3--------|-------------3---|----------3-----|
G |-----------------|--------------|-----------------|----------------|
D |-----------------|--------------|-----------------|----------------|
A |-----------------|--------------|-----------------|----------------|
E |-----------------|--------------|-----------------|----------------|>

9 | | | | | | | | | | | | | | | |
E |-----2-2-2-0---0-|-----2-0-------|---------0-2-0---|-2---2---2---0-|
B |-------------3---|----------3-0--|-----3-3-------3-|-----3---3---2-|
G |-----------------|---------------|-----------------|---------------|
D |-----------------|---------------|-----------------|---------------|
A |-----------------|---------------|-----------------|---------------|
E |-----------------|---------------|-----------------|---------------|>

13 | | | | | | | | | | | | | | | |
E |---------------------|-----2-2-2-0---0-|-------2--0---|-----2-2-2-0---0-|
B |-3---------------3---|-3-----------3---|-----3--------|-------------3---|
G |-4--------2--2-4---4-|-----------------|--------------|-----------------|
D |---------------------|-----------------|--------------|-----------------|
A |---------------------|-----------------|--------------|-----------------|
E |---------------------|-----------------|--------------|-----------------|>

17 | | | | | | | | | | | | | | | |
E |--2---0-----0-2-|-----2-2-2-0---0-|-----2-0-------|---------0-2-0---|
B |----------3-----|-------------3---|----------3-0--|-----3-3-------3-|
G |----------------|-----------------|---------------|-----------------|
D |----------------|-----------------|---------------|-----------------|
A |----------------|-----------------|---------------|-----------------|
E |----------------|-----------------|---------------|-----------------|>

21 | | | | | | | | | | | | | | | |
E |--5--5-5-5-3-2-5-|--5--5----5--7-5-|--5--5-5-5-----5-|--5--5----5--7-5-|
B |-----------------|-------8---------|-----------8-7---|-------8---------|
G |-----------------|-----------------|-----------------|-----------------|
D |-----------------|-----------------|-----------------|-----------------|
A |-----------------|-----------------|-----------------|-----------------|
E |-----------------|-----------------|-----------------|-----------------|>>

25 | | | | | | | | | | | | | | | |
E |------5-5-5-5-----7-|--5--3-5--3--2-3-|--2--0----0--2-3-|--2--0----0------|
B |--7-----------8-7---|-----------------|-------3---------|-------3-----2-3-|
G |--------------------|-----------------|-----------------|-----------------|
D |--------------------|-----------------|-----------------|-----------------|
A |--------------------|-----------------|-----------------|-----------------|
E |--------------------|-----------------|-----------------|-----------------|>

29 | | | | | | | | | | | | | | | |
E |--5--5-5-5-3-2-5-|--5--5----5--7-5-|--5--5-5-5-----5-|--5--5----5--7-5-|
B |-----------------|-------8---------|-----------8-7---|-------8---------|
G |-----------------|-----------------|-----------------|-----------------|
D |-----------------|-----------------|-----------------|-----------------|
A |-----------------|-----------------|-----------------|-----------------|
E |-----------------|-----------------|-----------------|-----------------|>

Esta é a página - 5 -
© Copyright by Sandro Rogério Martins – Todos os direitos reservados.“A rapadura é mole, mas não é doce. Pensou que ia ser moleza!” Nada é fácil nesta vida.

33 | | | | | | | | | | | | | | | |
E |------5-5-5-5-----7-|--5--3-5--3--2-3-|--2--0----0--2-3-|--2--0----0------|
B |--7-----------8-7---|-----------------|-------3---------|-------3-----2-3-|
G |--------------------|-----------------|-----------------|-----------------|
D |--------------------|-----------------|-----------------|-----------------|
A |--------------------|-----------------|-----------------|-----------------|
E |--------------------|-----------------|-----------------|-----------------|>

37 | | | | | | | | | | | | | | | |
E |-----2-3-5-3-2-3-|--2--0----0------|-----2-3-5-3-2-3-|--2--0----0------|
B |-----------------|-------3-----2-3-|-----------------|-------3-----2-3-|
G |-----------------|-----------------|-----------------|-----------------|
D |-----------------|-----------------|-----------------|-----------------|
A |-----------------|-----------------|-----------------|-----------------|
E |-----------------|-----------------|-----------------|-----------------|>

41 | | | | | | | | | | | |
E |-----2-3-5-3-2-3-|--2--0----0------|--------------|
B |-----------------|-------3-----2-3-|--------------|
G |-----------------|-----------------|--------------|
D |-----------------|-----------------|--------------|
A |-----------------|-----------------|--------------|
E |-----------------|-----------------|--------------|.

1-04 - Alfa e Omega


Tom: A maior

1 | | | | | | | | | | | | | | | |
E |-------------0-5-|--------------|---------------2-|--------------|
B |-----2-2-2-3-----|--3-----------|---------0-2-3---|--------------|
G |-----------------|--------------|-----------------|--------------|
D |-----------------|--------------|-----------------|--------------|
A |-----------------|--------------|-----------------|--------------|
E |-----------------|--------------|-----------------|--------------|

5 | | | | | | | | | | | | | | | |
E |---------5-4-5-9-|--7-------------9-|--------------|-7------------|
B |-5---------------|----------7--10---|--------------|--------------|
G |-----------------|------------------|--------------|--------------|
D |-----------------|------------------|--------------|--------------|
A |-----------------|------------------|--------------|--------------|
E |-----------------|------------------|--------------|--------------|

9 | | | | | | | | | | | | | | | |
E |---------------5-|--------------|-----------------|--------------|
B |-------------5---|--------------|---------0-----7-|--------------|
G |-----6-6-6-7-----|--7-----------|-----------6-7---|--------------|
D |-----------------|--------------|-----------------|--------------|
A |-----------------|--------------|-----------------|--------------|
E |-----------------|--------------|-----------------|--------------|

13 | | | | | | | | | | | | | | | |
E |-0-------5-4-5-9-|--7-------------9-|--------------|-7-----------7-|
B |-----------------|----------7--10---|--------------|---------10----|
G |-----------------|------------------|--------------|---------------|
D |-----------------|------------------|--------------|---------------|
A |-----------------|------------------|--------------|---------------|
E |-----------------|------------------|--------------|---------------|

17 | | | | | | | | | | | | | | | |
E |-10-9----------|-9-10-7----------|-7-5----------|-5-----------5---|
B |---------------|-----------------|--------------|---8-----------8-|
G |---------------|-----------------|--------------|-----------------|
D |---------------|-----------------|--------------|-----------------|
A |---------------|-----------------|--------------|-----------------|
E |---------------|-----------------|--------------|-----------------|

Esta é a página - 6 -
© 2008 by Tablat32 – Cópias somente com autorização

21 | | | | | | | | | | | | | | | |
E|-------------4-5-|-------------4-5-|-----9---7----5-|-5-----------4-5-|
B|-7---------------|-5---------------|----------------|-----------------|
G|-----------------|-----------------|-7--------------|-----------------|
D|-----------------|-----------------|----------------|-----------------|
A|-----------------|-----------------|----------------|-----------------|
E|-----------------|-----------------|----------------|-----------------|

25 | | | | | | | | | | | |
E |-------------4-5-|-----9---7----5-|-5------------|
B |-5---------------|----------------|--------------|
G |-----------------|-7--------------|--------------|
D |-----------------|----------------|--------------|
A |-----------------|----------------|--------------|
E |-----------------|----------------|--------------|.

1-05 - Alto preço


Tom:
1 | | | | | | | | | | | | | | | |
E |-0-8--8--7-5-8-7-|-5-7----------|--5---5------5---|-----5-5-5------|
B |-----------------|------5-------|---------8-6---8-|-6-5------------|
G |-----------------|--------------|-----------------|----------------|
D |-----------------|--------------|-----------------|----------------|
A |-----------------|--------------|-----------------|----------------|
E |-----------------|--------------|-----------------|----------------|

5 | | | | | | | | | | | | | | | |
E |--8---8--7-5--7-|-8-7--7--5-7---|--5-5-5-5-----5--|--7-7-7-7-5---7--7-5-|
B |----------------|-------------5-|----------8-6----|------------8--------|
G |----------------|---------------|-----------------|---------------------|
D |----------------|---------------|-----------------|---------------------|
A |----------------|---------------|-----------------|---------------------|
E |----------------|---------------|-----------------|---------------------|

9 | | | | | | | | | | | | | | | |
E |---5----------|-5-5-5-5-5-7-8-8-7-|-5---8--------|---5-5-5-7-8-8-7-|
B |-8------------|-------------------|---8----------|-8---------------|
G |--------------|-------------------|--------------|-----------------|
D |--------------|-------------------|--------------|-----------------|
A |--------------|-------------------|--------------|-----------------|
E |--------------|-------------------|--------------|-----------------|

13 | | | | | | | | | | | | | | | |
E |-5------------|-5-5-5-5-5-7-8-8-|-5-5-5-5-5-7-8-8-|-8-10-12-12-12-10----12-10-|
B |---8----------|-----------------|-----------------|------------------13-------|
G |--------------|-----------------|-----------------|---------------------------|
D |--------------|-----------------|-----------------|---------------------------|
A |--------------|-----------------|-----------------|---------------------------|
E |--------------|-----------------|-----------------|---------------------------|

17 | | | | | | | | | | | |
E |----10----------|----10-12-12-12-12-10-8-10-7-|--7-8-8-8-7-5----|
B |-13-------------|-13--------------------------|--------------8--|
G |----------------|-----------------------------|-----------------|
D |----------------|-----------------------------|-----------------|
A |----------------|-----------------------------|-----------------|
E |----------------|-----------------------------|-----------------|

20 | | | | | | | | | | | |
E |---5-5-5-5-7-8-8-3-3-3-|--3-5-5-5-5-7-8-10--|-8-10-12-12-12-12-10-8-10-7-|
B |-8---------------------|--------------------|----------------------------|
G |-----------------------|--------------------|----------------------------|
D |-----------------------|--------------------|----------------------------|
A |-----------------------|--------------------|----------------------------|
E |-----------------------|--------------------|----------------------------|

Esta é a página - 7 -
© Copyright by Sandro Rogério Martins – Todos os direitos reservados.“A rapadura é mole, mas não é doce. Pensou que ia ser moleza!” Nada é fácil nesta vida.

23 | | | | | | | | | | | | | | | |
E |--7-8-8-8-7-5----|---5-5-5-5-7-8-8-3-3-3-|--3-5--7--8-8--7-|-7-8----------|
B |--------------8--|-8---------------------|-----------------|--------------|
G |-----------------|-----------------------|-----------------|--------------|
D |-----------------|-----------------------|-----------------|--------------|
A |-----------------|-----------------------|-----------------|--------------|
E |-----------------|-----------------------|-----------------|--------------|
1-06 - Ao único
único
Tom: D maior

1 | | | | | | | | | | | | | | | | | | | |
E |---2-2-2------|-2-2-0-0------|---0--2--2----|--------------|---3--3---5---7-|
B |--------------|--------------|-3------------|--------------|-3--------------|
G |-2------------|--------------|--------------|--------------|----------------|
D |--------------|--------------|--------------|--------------|----------------|
A |--------------|--------------|--------------|--------------|----------------|
E |--------------|--------------|--------------|--------------|----------------|>

6 | | | | | | | | | | | | | | | | | | | |
E |-5---2--------|-2-3--2---0-----|-0------------|--------------|-5-5--5--5----|
B |--------------|--------------3-|--------------|--------------|--------------|
G |--------------|----------------|--------------|--------------|--------------|
D |--------------|----------------|--------------|--------------|--------------|
A |--------------|----------------|--------------|--------------|--------------|
E |--------------|----------------|--------------|--------------|--------------|>

11 | | | | | | | | | | | | | | | |
E |-5-5--3--2----|--5---3--3----2-|--2---0--0----|----------------|
B |--------------|----------------|--------------|-3-3--0-------3-|
G |--------------|----------------|--------------|----------------|
D |--------------|----------------|--------------|----------------|
A |--------------|----------------|--------------|----------------|
E |--------------|----------------|--------------|----------------|>

15 | | | | | | | | | | | | | | | |
E |-0-2--0---------|--------------|-----------------|-9-10----------|
B |--------------3-|-2-3----------|--------------12-|---------------|
G |----------------|--------------|-----------------|---------------|
D |----------------|--------------|-----------------|---------------|
A |----------------|--------------|-----------------|---------------|
E |----------------|--------------|-----------------|---------------|>

19 | | | | | | | | | | | | | | | |
E |--9-----------|----7--7---7-----|--------------7-|-9-10----------|
B |--------------|-10------------8-|-10-------------|---------------|
G |--------------|-----------------|----------------|---------------|
D |--------------|-----------------|----------------|---------------|
A |--------------|-----------------|----------------|---------------|
E |--------------|-----------------|----------------|---------------|>

23 | | | | | | | | | | | | | | | | | | | |
E |--9-----------|-5-7--7---7-----|-5------------|----------------|-5-7-7-7------|
B |--------------|--------------8-|--------------|--------------7-|--------------|
G |--------------|----------------|--------------|----------------|--------------|
D |--------------|----------------|--------------|----------------|--------------|
A |--------------|----------------|--------------|----------------|--------------|
E |--------------|----------------|--------------|----------------|--------------|>

28 | | | | | | | | | | | | | | | |
E |-7-7-5--------5-|-5-6--6---7---9-|-10-----------0-|-2-3--3---5---3-|
B |----------------|----------------|----------------|----------------|
G |----------------|----------------|----------------|----------------|
D |----------------|----------------|----------------|----------------|
A |----------------|----------------|----------------|----------------|
E |----------------|----------------|----------------|----------------|>

Esta é a página - 8 -
© 2008 by Tablat32 – Cópias somente com autorização

32 | | | | | | | | | | | | | | | |
E |-2--------3---2-|--------------|----------------|-2-3--3---5---3-|
B |------5---------|-3------------|--------------5-|----------------|
G |----------------|--------------|----------------|----------------|
D |----------------|--------------|----------------|----------------|
A |----------------|--------------|----------------|----------------|
E |----------------|--------------|----------------|----------------|>

36 | | | | | | | |
E |-2--------3---2-|--------------|
B |------5---------|-3------------|
G |----------------|--------------|
D |----------------|--------------|
A |----------------|--------------|
E |----------------|--------------|.

1-07 - Bem querer


Tom:
1 | | | | | | | | | | | | | | | |
E |---0-2---2---3-3-|----------------|-------3--2---|--------------|
B |-3---------------|----------2-----|-2-3-5--------|------0-------|
G |-----------------|-----4-4------2-|--------------|--2-----------|
D |-----------------|----------------|--------------|--------------|
A |-----------------|----------------|--------------|--------------|
E |-----------------|----------------|--------------|--------------|

5 | | | | | | | | | | | | | | | | | | | |
E |---0-2-2--3--3-|----------------|-------3--2---|--------------|---0-2---2-3-3-|
B |-3-------------|--3--3-3--2-----|-2-3-5--------|--------------|-4-------------|
G |---------------|--------------2-|--------------|--------------|---------------|
D |---------------|----------------|--------------|--------------|---------------|
A |---------------|----------------|--------------|--------------|---------------|
E |---------------|----------------|--------------|--------------|---------------|>

10 | | | | | | | | | | | | | | | |
E |--7--7-7-5----5-|-12-10-9-10--5--5-5-|--3--3-3--------|-----2---2-3-3-|
B |----------------|--------------------|----------------|-3-5-----------|
G |----------------|--------------------|--------------2-|---------------|
D |----------------|--------------------|----------------|---------------|
A |----------------|--------------------|----------------|---------------|
E |----------------|--------------------|----------------|---------------|>

14 | | | | | | | | | | | | | | | | | | | |
E |----------------|--------------|--------------|---------------|---------0-0--|
B |--5--3-3-2------|-5-3--2--3----|--------------|--3--3-3-------|-3-5-6-6------|
G |--------------2-|--------------|--------------|----------5--3-|--------------|
D |----------------|--------------|--------------|---------------|--------------|
A |----------------|--------------|--------------|---------------|--------------|
E |----------------|--------------|--------------|---------------|--------------|>

19 | | | | | | | | | | | | | | | | | | | |
E |--1--3--------|-3-1-0-1------1-|--3---5--5-6-3-|-----1-1-0-0----|-0-1-3-6--5---|
B |-------1------|----------1-----|---------------|--------------1-|--------------|
G |--------------|----------------|---------------|----------------|--------------|
D |--------------|----------------|---------------|----------------|--------------|
A |--------------|----------------|---------------|----------------|--------------|
E |--------------|----------------|---------------|----------------|--------------|>

24 | | | | | | | | | | | | | | | |
E |--------------2-|-2-3-5-5--6---|-------------0-|-----10--10-10--8-|
B |----------------|--------------|-----3-3-3-----|------------------|
G |----------------|--------------|---------------|------------------|
D |----------------|--------------|---------------|------------------|
A |----------------|--------------|---------------|------------------|
E |----------------|--------------|---------------|------------------|>

Esta é a página - 9 -
© Copyright by Sandro Rogério Martins – Todos os direitos reservados.“A rapadura é mole, mas não é doce. Pensou que ia ser moleza!” Nada é fácil nesta vida.

28 | | | | | | | | | | | | | | | | | | | |
E |-8----6--6---5-|-------5-5-6-6-|--------------|---------------|--------------|
B |---------------|---6-8---------|-----8-6-6-5--|---8--6-5--6---|--------------|
G |---------------|-5-------------|--------------|-5-------------|--------------|
D |---------------|---------------|--------------|---------------|--------------|
A |---------------|---------------|--------------|---------------|--------------|
E |---------------|---------------|--------------|---------------|--------------|>

33 | | | | | | | | | | | | | | | |
E |-----0-2--2---3-|-3-------------|--7---7-9--7---5-|-----5-3-3---2-|
B |----------------|---------------|-----------------|---------------|
G |--7-------------|------4--4---4-|-----------------|---------------|
D |----------------|---------------|-----------------|---------------|
A |----------------|---------------|-----------------|---------------|
E |----------------|---------------|-----------------|---------------|>

37 | | | | | | | | | | | |
E |-------2--2--3-3-|--------------|---0-----------|
B |---3-5-----------|-----5-3-3-2--|------3-2--3---|
G |-2---------------|--------------|-2-------------|
D |-----------------|--------------|---------------|
A |-----------------|--------------|---------------|
E |-----------------|--------------|---------------|.

1-08 - Bom estarmos aqui


Tom: E maior

1 | | | | | | | | | | | | | | | |
E |-0-----------4---|-----0-------4---|--------------|----------------|
B |-----0-5--5----7-|-------7---------|--------------|----------------|
G |-----------------|---------------4-|--------------|--------------4-|
D |-----------------|-----------------|--------------|----------------|
A |-----------------|-----------------|--------------|----------------|
E |-----------------|-----------------|--------------|----------------|

5 | | | | | | | | | | | | | | | |
E |-7---7-7-----4-5-|-----4----0-----|--------------|--------------|
B |-----------------|-------7------7-|--9-----------|--------------|
G |-----------------|----------------|--------------|--------------|
D |-----------------|----------------|--------------|--------------|
A |-----------------|----------------|--------------|--------------|
E |-----------------|----------------|--------------|--------------|

9 | | | | | | | | | | | | | | | |
E |-9---7-9-----12-11-|-----9-7------|-7-7-----7---11-9-|--9--7-4------|
B |-------------------|--------------|------9-----------|--------------|
G |-------------------|--------------|------------------|--------------|
D |-------------------|--------------|------------------|--------------|
A |-------------------|--------------|------------------|--------------|
E |-------------------|--------------|------------------|--------------|

13 | | | | | | | | | | | | | | | |
E |-5---5---7---4-|-------0---------|--4--4--------|--------------|
B |---------------|-----7-------7-7-|--------------|--------------|
G |---------------|-----------------|--------------|--------------|
D |---------------|-----------------|--------------|--------------|
A |---------------|-----------------|--------------|--------------|
E |---------------|-----------------|--------------|--------------|

17 | | | | | | | | | | | | | | | |
E |-9---7-9-----12-11-|-----9-7------|-7-7-----7---11-9-|--9--7-4------|
B |-------------------|--------------|------9-----------|--------------|
G |-------------------|--------------|------------------|--------------|
D |-------------------|--------------|------------------|--------------|
A |-------------------|--------------|------------------|--------------|
E |-------------------|--------------|------------------|--------------|

Esta é a página - 10 -
© 2008 by Tablat32 – Cópias somente com autorização

21 | | | | | | | | | | | | | | | | | | | |
E |-5---5---7---4-|----------------|--------------|--------------|-4------------|
B |---------------|-----7-5--4---7-|--5--5--------|--------------|--------------|
G |---------------|----------------|--------------|--------------|--------------|
D |---------------|----------------|--------------|--------------|--------------|
A |---------------|----------------|--------------|--------------|--------------|
E |---------------|----------------|--------------|--------------|--------------|

26 | | | | | | | | | | | | | | | |
E |-4-4-4-4-4---4-5-|--------------|-5-5-5-5-------|--------------|
B |-----------------|--------------|---------5-4-4-|--------------|
G |-----------------|--------------|---------------|--------------|
D |-----------------|--------------|---------------|--------------|
A |-----------------|--------------|---------------|--------------|
E |-----------------|--------------|---------------|--------------|

30 | | | | | | | | | | | | | | | |
E |-----------------|--------------|-4------------|-4-4-4-4-4---4-5-|
B |-------4---------|--------------|--------------|-----------------|
G |-6-6-6---6---4-4-|--------------|--------------|-----------------|
D |-----------------|--------------|--------------|-----------------|
A |-----------------|--------------|--------------|-----------------|
E |-----------------|--------------|--------------|-----------------|>

34 | | | | | | | | | | | | | | | | | | | |
E |--------------|-5-5-5-5-------|--------------|-5-5-5-7-4---0-|--------------|
B |--------------|---------5-4-4-|--------------|-----------7---|--------------|
G |--------------|---------------|--------------|---------------|--------------|
D |--------------|---------------|--------------|---------------|--------------|
A |--------------|---------------|--------------|---------------|--------------|
E |--------------|---------------|--------------|---------------|--------------|.

1-09 - Brilha Jesus


Tom: A maior

1 | | | | | | | | | | | | | | | | | | | |
E |-0------------|-0------------|-0------------|-0------------|-0----0------0---|
B |------7-------|-9----7-------|------7-------|-9----7-------|---------7-------|
G |-6----7-------|------7-------|-6----7-------|------7-------|---------------7-|
D |--------------|--------------|--------------|--------------|-----------------|
A |--------------|--------------|--------------|--------------|-----------------|
E |--------------|--------------|--------------|--------------|-----------------|

6 | | | | | | | | | | | | | | | |
E |-0---------0-0-|-0----0------0---|-0---------0-0-|-2---2---4---2-4-|
B |---------0-----|---------7-----3-|------2--------|-----------------|
G |------6--------|-----------------|---------4-----|-----------------|
D |---------------|-----------------|---------------|-----------------|
A |---------------|-----------------|---------------|-----------------|
E |---------------|-----------------|---------------|-----------------|

10 | | | | | | | | | | | | | | | |
E |-4---0-----2-2-|-2---2---4---2-4-|-4---0-----2-2-|---------------|
B |-------2-2-----|-----------------|-------2-2-----|-3-------2---3-|
G |---------------|-----------------|---------------|---------------|
D |---------------|-----------------|---------------|---------------|
A |---------------|-----------------|---------------|---------------|
E |---------------|-----------------|---------------|---------------|

14 | | | | | | | | | | | | | | | |
E |--------------|---------------|-0------------|-9-----------9----|
B |--------------|-3-------2---3-|--------------|---------12----10-|
G |-4------------|---------------|--------------|------------------|
D |--------------|---------------|--------------|------------------|
A |--------------|---------------|--------------|------------------|
E |--------------|---------------|--------------|------------------|

Esta é a página - 11 -
© Copyright by Sandro Rogério Martins – Todos os direitos reservados.“A rapadura é mole, mas não é doce. Pensou que ia ser moleza!” Nada é fácil nesta vida.

18 | | | | | | | | | | | | | | | |
E |---------10--9-|-----------------|----------------|-9-----------9----|
B |---------------|-12-----------10-|-10--9---10--12-|---------12----10-|
G |---------------|---------11------|----------------|------------------|
D |---------------|-----------------|----------------|------------------|
A |---------------|-----------------|----------------|------------------|
E |---------------|-----------------|----------------|------------------|

22 | | | | | | | | | | | | | | | |
E |---------10--9-|--------------|--------------|-9-----------9----|
B |---------------|-12------12---|-12-----------|---------12----10-|
G |---------------|--------------|--------------|------------------|
D |---------------|--------------|--------------|------------------|
A |---------------|--------------|--------------|------------------|
E |---------------|--------------|--------------|------------------|

26 | | | | | | | | | | | | | | | |
E |---------10--9-|-----------------|----------------|-9-----------9----|
B |---------------|-12-----------10-|-10--9---10--12-|---------12----10-|
G |---------------|---------11------|----------------|------------------|
D |---------------|-----------------|----------------|------------------|
A |---------------|-----------------|----------------|------------------|
E |---------------|-----------------|----------------|------------------|

30 | | | | | | | | | | | |
E |---------10--9-|-----------------|--------------|
B |---------------|-12------12------|--------------|
G |---------------|--------------14-|-14-----------|
D |---------------|-----------------|--------------|
A |---------------|-----------------|--------------|
E |---------------|-----------------|--------------|.

1-10 - Celebrai
Tom: F maior

1 | | | | | | | | | | | | | | | | | | | |
E |-----5-------3-|-1---1-3--3---3-|--5--5--------|--------------|-----5-------3-|
B |---------------|----------------|--------------|--------------|---------------|
G |---------------|----------------|--------------|--------------|---------------|
D |---------------|----------------|--------------|--------------|---------------|
A |---------------|----------------|--------------|--------------|---------------|
E |---------------|----------------|--------------|--------------|---------------|

6 | | | | | | | | | | | | | | | | | | | |
E |-1---1-3--3---3-|--1--1--------|--------------|-----5-------3-|-1---1-3--3---3-|
B |----------------|--------------|--------------|---------------|----------------|
G |----------------|--------------|--------------|---------------|----------------|
D |----------------|--------------|--------------|---------------|----------------|
A |----------------|--------------|--------------|---------------|----------------|
E |----------------|--------------|--------------|---------------|----------------|

11 | | | | | | | | | | | | | | | | | | | |
E |--5--5--------|--------------|-----5-------3-|-1---1-3--3---3-|--1--1--------|
B |--------------|--------------|---------------|----------------|--------------|
G |--------------|--------------|---------------|----------------|--------------|
D |--------------|--------------|---------------|----------------|--------------|
A |--------------|--------------|---------------|----------------|--------------|
E |--------------|--------------|---------------|----------------|--------------|

16 | | | | | | | | | | | | | | | |
E |----------8--8-8-|-8------------|----------8--8-8-|-10-------8-----10-|
B |-----------------|--------------|-----------------|-------------10----|
G |-----------------|--------------|-----------------|-------------------|
D |-----------------|--------------|-----------------|-------------------|
A |-----------------|--------------|-----------------|-------------------|
E |-----------------|--------------|-----------------|-------------------|

Esta é a página - 12 -
© 2008 by Tablat32 – Cópias somente com autorização

20 | | | | | | | | | | | | | | | |
E |---------10--10-|-8-------8----|---------8---8-|-10--8---------|
B |----------------|--------------|---------------|-------10------|
G |----------------|--------------|---------------|---------------|
D |----------------|--------------|---------------|---------------|
A |----------------|--------------|---------------|---------------|
E |----------------|--------------|---------------|---------------|

24 | | | | | | | | | | | | | | | |
E |----------8--8-8-|-8------------|----------8--8-8-|-10-------8-----10-|
B |-----------------|--------------|-----------------|-------------10----|
G |-----------------|--------------|-----------------|-------------------|
D |-----------------|--------------|-----------------|-------------------|
A |-----------------|--------------|-----------------|-------------------|
E |-----------------|--------------|-----------------|-------------------|

28 | | | | | | | | | | | | | | | | | | | |
E |---------10--10-|-8-------8----|---------8---8-|-10--8---------|-------------8-|
B |----------------|--------------|---------------|-------10------|---------------|
G |----------------|--------------|---------------|---------------|---------------|
D |----------------|--------------|---------------|---------------|---------------|
A |----------------|--------------|---------------|---------------|---------------|
E |----------------|--------------|---------------|---------------|---------------|

33 | | | | | | | | | | | | | | | |
E |-8-8--8---8--8---|---------8----|-8-8--8---8-----|------------------------8-10-|
B |---------------8-|--------------|--------------8-|----------------8-10-11------|
G |-----------------|--------------|----------------|---------7-9-10--------------|
D |-----------------|--------------|----------------|-----------------------------|
A |-----------------|--------------|----------------|-----------------------------|
E |-----------------|--------------|----------------|-----------------------------|

37 | | | | | | | | | | | | | | | |
E |-8-8--8---8-----|----------8--8-8-|-8--------------|--------------|
B |--------------8-|-----------------|---------10-----|--------------|
G |----------------|-----------------|-------------12-|-10-----------|
D |----------------|-----------------|----------------|--------------|
A |----------------|-----------------|----------------|--------------|
E |----------------|-----------------|----------------|--------------|
1-11 - Com meus lábios
Tom:

1 | | | | | | | | | | | | | | | |
E |------0----0---|-3----2--3-2-0---|---------0------|-------0-2----|
B |-7-------7---3-|---------------3-|-2---2-3------2-|-3---3--------|
G |---------------|-----------------|----------------|--------------|
D |---------------|-----------------|----------------|--------------|
A |---------------|-----------------|----------------|--------------|
E |---------------|-----------------|----------------|--------------|

5 | | | | | | | | | | | | | | | |
E |-2-------2-----|-3----2--3-2-0---|---------0-------|-------------3-5-|
B |------5----5-3-|---------------3-|-2---2-3-----3-2-|-3---------------|
G |---------------|-----------------|-----------------|-----------------|
D |---------------|-----------------|-----------------|-----------------|
A |---------------|-----------------|-----------------|-----------------|
E |---------------|-----------------|-----------------|-----------------|

9 | | | | | | | | | | | | | | | |
E |-7----7--7-7--7-|-7-5--5-3-5----5-|-5-3--3-2-3----7-|-7-5--5---5-----5-|
B |----------------|-----------------|-----------------|--------8-----8---|
G |----------------|-----------------|-----------------|------------------|
D |----------------|-----------------|-----------------|------------------|
A |----------------|-----------------|-----------------|------------------|
E |----------------|-----------------|-----------------|------------------|

Esta é a página - 13 -
© Copyright by Sandro Rogério Martins – Todos os direitos reservados.“A rapadura é mole, mas não é doce. Pensou que ia ser moleza!” Nada é fácil nesta vida.

13 | | | | | | | | | | | | | | | |
E |-7----7--7-7--7-|-7-5--5---5------|-0---0---------0-|--------------|
B |----------------|--------8------7-|-------7-8---7---|--------------|
G |----------------|-----------------|-----------------|--------------|
D |----------------|-----------------|-----------------|-12-----------|
A |----------------|-----------------|-----------------|--------------|
E |----------------|-----------------|-----------------|--------------|
1-12 - Como é precioso
Tom:

1 | | | | | | | | | | | |
E |-----------7--------|---5-7--5----------|---5-5---7----------|
B |-7-10-10-7----7---7-|-8--------5------5-|-7-----7----7---7-7-|
G |--------------------|-------------------|--------------------|
D |--------------------|-------------------|--------------------|
A |--------------------|-------------------|--------------------|
E |--------------------|-------------------|--------------------|

4 | | | | | | | | | | | |
E |------7--------------9-|-10-10-10-10-9---------9-|-10-10-10-9--------------0-|
B |-8-10----8--------12---|--------------------12---|------------12-10----------|
G |-----------9-----------|-------------------------|----------------------11---|
D |-----------------------|-------------------------|---------------------------|
A |-----------------------|-------------------------|---------------------------|
E |-----------------------|-------------------------|---------------------------|

7 | | | | | | | | | | | |
E |---7-7-----------0-2-|-3-3-3-2-0-------10-9-10-|--10-12--10-9---------9-|
B |-7------7-7--7-------|-----------3-------------|---------------12-10----|
G |---------------------|-------------------------|------------------------|
D |---------------------|-------------------------|------------------------|
A |---------------------|-------------------------|------------------------|
E |---------------------|-------------------------|------------------------|

10 | | | | | | | | | | | |
E |-10-10-10-9--------------0-|---7-7-------0--0----|----------------9-|
B |------------12-10----------|-7------7-7-------12-|--10---------12---|
G |----------------------11---|---------------------|------------------|
D |---------------------------|---------------------|------------------|
A |---------------------------|---------------------|------------------|
E |---------------------------|---------------------|------------------|

13 | | | | | | | | | | | |
E |-10-10-10-10-9---------9-|-10-9------------9-10-|-10--------2-3--5-7--9-5-|
B |--------------------12---|------12------12------|----10-10----------------|
G |-------------------------|----------------------|-------------------------|
D |-------------------------|----------------------|-------------------------|
A |-------------------------|----------------------|-------------------------|
E |-------------------------|----------------------|-------------------------|

16 | | | | | | | | | | | |
E |---------------5-|-7---7-7-9------7-9-|-10-10-10-9-7--------10-7-|
B |-------------8---|--------------------|--------------10----------|
G |-----------------|--------------------|--------------------------|
D |-----------------|--------------------|--------------------------|
A |-----------------|--------------------|--------------------------|
E |-----------------|--------------------|--------------------------|

19 | | | | | | | | | | | |
E |---------0-----2-3-|-5-----------3-5-|-7---7-7-9------7-9-|
B |-10--7-------------|-----------------|--------------------|
G |-------7-----------|-----------------|--------------------|
D |-------------------|-----------------|--------------------|
A |-------------------|-----------------|--------------------|
E |-------------------|-----------------|--------------------|

Esta é a página - 14 -
© 2008 by Tablat32 – Cópias somente com autorização

22 | | | | | | | | | | | |
E |-10-10-10-9-7--------10-7-|---------0-------0-|--------------|
B |--------------10----------|-10--7---------7---|--------------|
G |--------------------------|-------7-----------|--------------|
D |--------------------------|-------------------|-12-----------|
A |--------------------------|-------------------|--------------|
E |--------------------------|-------------------|--------------|
1-13 - Corpo e família
Tom:

1 | | | | | | | | | | | | | | | |
E |-----0-0-0-0-0---0-|---0----------|-0-0-5-5-5-5-4-0--|-2-4-2--2--0-0----|
B |-2-3-----------7---|-7------------|------------------|---------------2--|
G |-------------------|--------------|------------------|------------------|
D |-------------------|--------------|------------------|------------------|
A |-------------------|--------------|------------------|------------------|
E |-------------------|--------------|------------------|------------------|

5 | | | | | | | | | | | | | | | |
E |-------------------|--------------|-----0-0-0-0-0---0-|---0----------|
B |-----3-2-3-2-3-2-0-|---0----------|-2-3-----------7---|-7------------|
G |-2-2---------------|-2------------|-------------------|--------------|
D |-------------------|--------------|-------------------|--------------|
A |-------------------|--------------|-------------------|--------------|
E |-------------------|--------------|-------------------|--------------|

9 | | | | | | | | | | | | | | | |
E |-0-0-5-5-5-5-4-0--|-2-4-2-2-2-0-0--|-------------------|---0-------------|
B |------------------|----------------|-----3-2-3-2-3-2-0-|--------------10-|
G |------------------|----------------|-2-2---------------|-2---------------|
D |------------------|----------------|-------------------|-----------------|
A |------------------|----------------|-------------------|-----------------|
E |------------------|----------------|-------------------|-----------------|

13 | | | | | | | | | | | |
E |----9--------9-10-9-|-------0----0----9-7-|------------------|
B |-12-----------------|-12-12--------12-----|-10-10-7---9-10-7-|
G |------9----9--------|---------------------|------------------|
D |--------------------|---------------------|------------------|
A |--------------------|---------------------|------------------|
E |--------------------|---------------------|------------------|

16 | | | | | | | | | | | |
E |----10-9-7----7-0----|----9--------9-10-9-|-------0----0----9-7-|
B |--7--------10-----10-|-12-----------------|-12-12--------12-----|
G |---------------------|------9----9--------|---------------------|
D |---------------------|--------------------|---------------------|
A |---------------------|--------------------|---------------------|
E |---------------------|--------------------|---------------------|

19 | | | | | | | | | | | |
E |-------------------|----10-9-7----7-0----|----9--------9-10-9-|
B |-10-10-7-7-9-10-7--|--7--------10-----10-|-12-----------------|
G |-------------------|---------------------|------9----9--------|
D |-------------------|---------------------|--------------------|
A |-------------------|---------------------|--------------------|
E |-------------------|---------------------|--------------------|

22 | | | | | | | | | | | | | | | |
E |-------0----0----9----|-------2--2--4-5--2-|-4-5--4---2---4-|--5---2--4-5-4-2-|
B |-12-12--------12---12-|-10-10--------------|----------------|-----------------|
G |----------------------|--------------------|----------------|-----------------|
D |----------------------|--------------------|----------------|-----------------|
A |----------------------|--------------------|----------------|-----------------|
E |----------------------|--------------------|----------------|-----------------|

Esta é a página - 15 -
© Copyright by Sandro Rogério Martins – Todos os direitos reservados.“A rapadura é mole, mas não é doce. Pensou que ia ser moleza!” Nada é fácil nesta vida.

26 | | | | | | | |
E |-4-5--4---2---4-|--5-----------|
B |----------------|--------------|
G |----------------|--------------|
D |----------------|--------------|
A |----------------|--------------|
E |----------------|--------------|
1-14 - Deus está aqui
Tom:

1 | | | | | | | | | | | | | | | |
E |---------0------|----------------|-7-7-7-7-7-7--------|-------------------|
B |-7----10------7-|----------------|-------------10---8-|-7-8-10------------|
G |----------------|-7------------7-|--------------------|-----------------7-|
D |----------------|----------------|--------------------|-------------------|
A |----------------|----------------|--------------------|-------------------|
E |----------------|----------------|--------------------|-------------------|>

5 | | | | | | | | | | | | | | | |
E |-7-7-7-7-7-7----7------|-----0----------|-3-3-3-3-3-2-0-0-0-----|--------------|
B |-------------10---10-8-|-7-------3----3-|-------------------3-2-|-3------------|
G |-----------------------|----------------|-----------------------|--------------|
D |-----------------------|----------------|-----------------------|--------------|
A |-----------------------|----------------|-----------------------|--------------|
E |-----------------------|----------------|-----------------------|--------------|.
1-15 - Ele é exaltado
Tom: Fá maior

1 | | | | | | | | | | | | | | | | | |
E |-1-0---1-0---1-0---1-0---|----------0--1---5-3--|-1-0---1-0---1-0---1-0---|
B |-----1-----1-----1-----1-|-3--------------------|-----1-----1-----1-----1-|
G |-------------------------|----------------------|-------------------------|
D |-------------------------|----------------------|-------------------------|
A |-------------------------|----------------------|-------------------------|
E |-------------------------|----------------------|-------------------------|

4 | | | | | | | | | | | | | | | | | |
E |----------0--1----3---|-5--------------------|-6----5------3---------3-|
B |-3--------------------|----------------------|----------6----------6---|
G |----------------------|----------------------|-------------------------|
D |----------------------|----------------------|-------------------------|
A |----------------------|----------------------|-------------------------|
E |----------------------|----------------------|-------------------------|

7 | | | | | | | | | | | | | | | | | |
E |-5-5-5-8-8-8----------|-6----5------------------|-5-5-5-8--8--10---10--|
B |-------------6--------|----------6--8-------6-8-|----------------------|
G |----------------------|-------------------------|----------------------|
D |----------------------|-------------------------|----------------------|
A |----------------------|-------------------------|----------------------|
E |----------------------|-------------------------|----------------------|

10 | | | | | | | | | | | | | | | | | |
E |-6-5---6-5---6-5---6-5---|---------5-8-10---8---|-6-5---6-5---6-5---6-5----|
B |-----6-----6-----6-----6-|-6--------------------|-----6-----6-----6--------|
G |-------------------------|----------------------|-----------------------10-|
D |-------------------------|----------------------|--------------------------|
A |-------------------------|----------------------|--------------------------|
E |-------------------------|----------------------|--------------------------|

13 | | | | | |
E |----------------------|
B |----------------------|
G |-10-------------------|
D |----------------------|
A |----------------------|
E |----------------------|

Esta é a página - 16 -
© 2008 by Tablat32 – Cópias somente com autorização

1-16 - Espirito enche


enche a minha vida
Tom:
1 | | | | | | | | | | | | | | | |
E |-0-------0----|----------------|--5--7-8-8-7-5---|--5------5-------|
B |---8-------8--|--6--5-----5----|---------------8-|-----8-6---8-6-5-|
G |--------------|-------7-5----7-|-----------------|-----------------|
D |--------------|----------------|-----------------|-----------------|
A |--------------|----------------|-----------------|-----------------|
E |--------------|----------------|-----------------|-----------------|

5 | | | | | | | | | | | | | | | |
E |-----------------|--------------|--5--7-8-7---5---|--------------|
B |-5-6-6-5---------|--------------|---------------8-|-6-8--5-------|
G |---------7---5-4-|-5------------|-----------------|----------5---|
D |-----------------|--------------|-----------------|--------------|
A |-----------------|--------------|-----------------|--------------|
E |-----------------|--------------|-----------------|--------------|

9 | | | | | | | | | | | | | | | |
E |--5--7-8-7---5---|-8---7-5------|--5--7-8-7---5-3-|-1-3--0-------|
B |---------------8-|--------------|-----------------|----------1---|
G |-----------------|--------------|-----------------|--------------|
D |-----------------|--------------|-----------------|--------------|
A |-----------------|--------------|-----------------|--------------|
E |-----------------|--------------|-----------------|--------------|

13 | | | | | | | |
E |-0-1--0----------|--------------|
B |---------3---1-0-|--------------|
G |-----------------|--------------|
D |-----------------|-10-----------|
A |-----------------|--------------|
E |-----------------|--------------|.
1-17 - Estrela
Estrela da manhã
Tom:

1 | | | | | | | | | | | | | | | |
E |-0---0--1---------0---|----------------|-5-5-5--5-3----3--5-1-|--0------------|
B |---3------3--1-3----1-|--------------1-|-------------6--------|----3----------|
G |----------------------|----------------|----------------------|---------------|
D |----------------------|----------------|----------------------|---------------|
A |----------------------|----------------|----------------------|---------------|
E |----------------------|----------------|----------------------|---------------|

5 | | | | | | | | | | | |
E |-0---0--1---------0---|----------------|-5-5-5--5-3----3--5-1-|
B |---3------3--1-3----1-|--------------1-|-------------6--------|
G |----------------------|----------------|----------------------|
D |----------------------|----------------|----------------------|
A |----------------------|----------------|----------------------|
E |----------------------|----------------|----------------------|

8 | | | | | | | | | | | | | | | |
E |--0----------------|-0-0-0--0-1--0---0---|-----0----------|-----5-3--0----0-|
B |----3----------1-3-|-------------------3-|-1-3---1--------|-1-1---------1---|
G |-------------------|---------------------|--------------2-|-----------------|
D |-------------------|---------------------|----------------|-----------------|
A |-------------------|---------------------|----------------|-----------------|
E |-------------------|---------------------|----------------|-----------------|

12 | | | | | | | | | | | | | | | |
E |--------------|---------0--0-5--5-2-|--------------|-----4-5-7--4-0----|
B |--3-----------|-----2-3-------------|--------------|-----------------3-|
G |--------------|---------------------|--------------|-------------------|
D |--------------|---------------------|--------------|-------------------|
A |--------------|---------------------|--------------|-------------------|
E |--------------|---------------------|--------------|-------------------|

Esta é a página - 17 -
© Copyright by Sandro Rogério Martins – Todos os direitos reservados.“A rapadura é mole, mas não é doce. Pensou que ia ser moleza!” Nada é fácil nesta vida.

16 | | | | | | | | | | | | | | | |
E |----------------|---------0--0-5--5-2-|--0---0--------|-----4-5-7---0-|
B |-3-2-0-2--------|-----2-3-------------|----3---3------|-----------9---|
G |----------------|---------------------|---------------|---------------|
D |----------------|---------------------|---------------|---------------|
A |----------------|---------------------|---------------|---------------|
E |----------------|---------------------|---------------|---------------|

20 | | | | | | | | | | | | | | | |
E |-9-10-12-----7--9---|--10----------|------9--9-10-7-----|-7-------------|
B |---------10-------7-|--------------|-----------------10-|---10----------|
G |--------------------|--------------|--------------------|---------------|
D |--------------------|--------------|--------------------|---------------|
A |--------------------|--------------|--------------------|---------------|
E |--------------------|--------------|--------------------|---------------|

1-18 - Eu quero ser um vaso novo


Tom:

1 | | | | | | | | | | | | | | | |
E |---1-3-5-----5-6-|-----5-5------|-----5-6--6--6-6-|--10-8-6--5---|
B |-1---------------|----------8---|--8--------------|--------------|
G |-----------------|--------------|-----------------|--------------|
D |-----------------|--------------|-----------------|--------------|
A |-----------------|--------------|-----------------|--------------|
E |-----------------|--------------|-----------------|--------------|

5 | | | | | | | | | | | | | | | |
E |-----5-6-8-8----|-8-10-8-10-8--6---|-6-----5------|---5-10-10--8---|
B |-6-6------------|------------------|---6-8--------|-6--------------|
G |----------------|------------------|--------------|----------------|
D |----------------|------------------|--------------|----------------|
A |----------------|------------------|--------------|----------------|
E |----------------|------------------|--------------|----------------|

9 | | | |
E |--------------------|
B |-8-11-10------------|
G |---------12------10-|
D |--------------------|
A |--------------------|
E |--------------------|
1-19 - Eu só confio
Tom:

1 | | | | | | | | | | | | | | | | | | | |
E |---------------|-5-5-5-5-5----|-----5-5-------|--------------|---------------|
B |-------------6-|--------------|---------8---6-|-5------------|---------5---8-|
G |-----5---7-----|--------------|---------------|--------------|-----5---------|
D |---------------|--------------|---------------|--------------|---------------|
A |---------------|--------------|---------------|--------------|---------------|
E |---------------|--------------|---------------|--------------|---------------|

6 | | | | | | | | | | | | | | | | | | | |
E |-6-6-6-6-6----|-----6-6-5---4-|-5------------|---------------|-5-5-5-5------|
B |--------------|---------------|--------------|-------------6-|--------------|
G |--------------|---------------|--------------|-----5-5-7-----|--------------|
D |--------------|---------------|--------------|---------------|--------------|
A |--------------|---------------|--------------|---------------|--------------|
E |--------------|---------------|--------------|---------------|--------------|

11 | | | | | | | | | | | | | | | | | | | |
E |-----5-5-------|-6------------|-----6---6---7-|-8-8-8-8------|-----6-6-5---3-|
B |---------8---6-|--------------|---------------|--------------|---------------|
G |---------------|--------------|---------------|--------------|---------------|
D |---------------|--------------|---------------|--------------|---------------|
A |---------------|--------------|---------------|--------------|---------------|
E |---------------|--------------|---------------|--------------|---------------|
Esta é a página - 18 -
© 2008 by Tablat32 – Cópias somente com autorização

16 | | | | | | | | | | | | | | | | | | | |
E |--------------|---------0-----|--------------|-----8-8-8---8-|-5------------|
B |-6------------|-----6-6-----6-|-8------------|---------------|--------------|
G |--------------|---------------|--------------|---------------|--------------|
D |--------------|---------------|--------------|---------------|--------------|
A |--------------|---------------|--------------|---------------|--------------|
E |--------------|---------------|--------------|---------------|--------------|

21 | | | | | | | | | | | | | | | | | | | |
E |---------------|--------------|-----8-8-10--8-|-5------------|---------------|
B |-----6-6-5---6-|-8------------|---------------|--------------|-------------6-|
G |---------------|--------------|---------------|--------------|-----5-5-7-----|
D |---------------|--------------|---------------|--------------|---------------|
A |---------------|--------------|---------------|--------------|---------------|
E |---------------|--------------|---------------|--------------|---------------|

26 | | | | | | | | | | | | | | | | | | | |
E |-5-5-5-5------|-----5-5-------|-6------------|-----6---6---7-|-8-8-8-8------|
B |--------------|---------8---6-|--------------|---------------|--------------|
G |--------------|---------------|--------------|---------------|--------------|
D |--------------|---------------|--------------|---------------|--------------|
A |--------------|---------------|--------------|---------------|--------------|
E |--------------|---------------|--------------|---------------|--------------|

31 | | | | | | | |
E |------------------|--------------|
B |-----11-11-10--10-|--------------|
G |------------------|-10-----------|
D |------------------|--------------|
A |------------------|--------------|
E |------------------|--------------|

1-20 - Eu te louvarei meu bom Jesus


Tom:

1 | | | | | | | | | | | | | | | |
E |---7--7--------0-|---7--7----------|---4--4----------|--------------|
B |-9-----------9---|-7-----------7-4-|-5-----------5---|--------------|
G |-----------------|-----------------|---------------4-|-6------------|
D |-----------------|-----------------|-----------------|--------------|
A |-----------------|-----------------|-----------------|--------------|
E |-----------------|-----------------|-----------------|--------------|

5 | | | | | | | | | | | | | | | |
E |-4-7--7------4-0-|---7--7----------|-----------------|--------------|
B |-----------------|-7-----------7---|---9--9--------0-|--------------|
G |-----------------|---------------8-|-9-----------9---|-6------------|
D |-----------------|-----------------|-----------------|--------------|
A |-----------------|-----------------|-----------------|--------------|
E |-----------------|-----------------|-----------------|--------------|

9 | | | | | | | | | | | | | | | |
E |--5--5-5-5-4---0-|-4------------|--5--5-5-5-4---0-|-9----7-------|
B |-------------7---|------7-------|-------------7---|--------------|
G |-----------------|--------------|-----------------|--------------|
D |-----------------|--------------|-----------------|--------------|
A |-----------------|--------------|-----------------|--------------|
E |-----------------|--------------|-----------------|--------------|

13 | | | | | | | | | | | | | | | |
E |---7--7--------0-|---7--7------0-0-|-9-9--9--9---7-|-7------------|
B |-9-----------9---|-7---------------|---------------|--------------|
G |-----------------|-----------------|---------------|--------------|
D |-----------------|-----------------|---------------|--------------|
A |-----------------|-----------------|---------------|--------------|
E |-----------------|-----------------|---------------|--------------|
Esta é a página - 19 -
© Copyright by Sandro Rogério Martins – Todos os direitos reservados.“A rapadura é mole, mas não é doce. Pensou que ia ser moleza!” Nada é fácil nesta vida.

17 | | | | | | | | | | | | | | | | | | | |
E |-9----7--6------|--------------|-9-9--7--6-----|-11------9----|-9----7--6------|
B |-----------7--9-|--------------|-------------7-|--------------|-----------7--9-|
G |----------------|--------------|---------------|--------------|----------------|
D |----------------|--------------|---------------|--------------|----------------|
A |----------------|--------------|---------------|--------------|----------------|
E |----------------|--------------|---------------|--------------|----------------|

22 | | | | | | | | | | | | | | | | | | | |
E |------9--9-6--7-|--------------|--------------|-9----7--6------|--------------|
B |----------------|--------------|--------------|-----------7--9-|--------------|
G |----------------|--------------|--------------|----------------|--------------|
D |----------------|--------------|--------------|----------------|--------------|
A |----------------|--------------|--------------|----------------|--------------|
E |----------------|--------------|--------------|----------------|--------------|

27 | | | | | | | | | | | | | | | | | | | |
E |-9-9--7--6-----|-11------9----|-9----7--6------|------9--9------|--------------|
B |-------------7-|--------------|-----------7--9-|-----------6--7-|--------------|
G |---------------|--------------|----------------|----------------|--------------|
D |---------------|--------------|----------------|----------------|--------------|
A |---------------|--------------|----------------|----------------|--------------|
E |---------------|--------------|----------------|----------------|--------------|

32 | | | | | | | | | | | | | | | | | | | |
E |-0------------4-|-5-4--2--0-----|--------------|--------------|-0------------4-|
B |----------7-----|-------------2-|-0------------|--------------|----------7-----|
G |----------------|---------------|--------------|--------------|----------------|
D |----------------|---------------|--------------|--------------|----------------|
A |----------------|---------------|--------------|--------------|----------------|
E |----------------|---------------|--------------|--------------|----------------|

37 | | | | | | | | | | | | | | | | | | | |
E |-5-4-----4---9-|-7------------|--------------|-0--------2---4-|-5-4--2--0-----|
B |------7--------|--------------|--------------|----------------|-------------2-|
G |---------------|--------------|--------------|----------------|---------------|
D |---------------|--------------|--------------|----------------|---------------|
A |---------------|--------------|--------------|----------------|---------------|
E |---------------|--------------|--------------|----------------|---------------|

42 | | | | | | | | | | | | | | | | | | | |
E |--------------|--------------|-0------------4-|-5-4-----4---9-|-7------------|
B |-0------------|--------------|----------7-----|------7--------|--------------|
G |--------------|--------------|----------------|---------------|--------------|
D |--------------|--------------|----------------|---------------|--------------|
A |--------------|--------------|----------------|---------------|--------------|
E |--------------|--------------|----------------|---------------|--------------|

47 | | | | | | | | | | | | | | | | | | | |
E |-9----7--6------|--------------|-9-9--7--6-----|-11------9----|-9----7--6------|
B |-----------7--9-|--------------|-------------7-|--------------|-----------7--9-|
G |----------------|--------------|---------------|--------------|----------------|
D |----------------|--------------|---------------|--------------|----------------|
A |----------------|--------------|---------------|--------------|----------------|
E |----------------|--------------|---------------|--------------|----------------|

52 | | | | | | | | | | | | | | | | | | | |
E |------9--9-6--7-|--------------|--------------|-9----7--6------|--------------|
B |----------------|--------------|--------------|-----------7--9-|--------------|
G |----------------|--------------|--------------|----------------|--------------|
D |----------------|--------------|--------------|----------------|--------------|
A |----------------|--------------|--------------|----------------|--------------|
E |----------------|--------------|--------------|----------------|--------------|

Esta é a página - 20 -
© 2008 by Tablat32 – Cópias somente com autorização

57 | | | | | | | | | | | | | | | |
E |-9-9--7--6-----|-11------9----|-9----7--6------|------9--9--------|
B |-------------7-|--------------|-----------7--9-|------------------|
G |---------------|--------------|----------------|-----------10--11-|
D |---------------|--------------|----------------|------------------|
A |---------------|--------------|----------------|------------------|
E |---------------|--------------|----------------|------------------|
1-21 - Eu vejo a glória
Tom:

1 | | | | | | | | | | | | | | | |
E |-----------0-0-0-|-0------------|--0--0-0-0-0---0-|-5-5-5----0---|
B |--5--5-5-5-------|-------0------|-------------7---|-------7------|
G |-----------------|---7-6--------|-----------------|--------------|
D |-----------------|--------------|-----------------|--------------|
A |-----------------|--------------|-----------------|--------------|
E |-----------------|--------------|-----------------|--------------|

5 | | | | | | | | | | | | | | | |
E |--0--0-0-0-0-0-0-|-0---------------|-----------------|--------------|
B |-----------------|---3-2-0-----0-2-|--3--2-0-0---2-0-|--------------|
G |-----------------|----------2------|-----------2-----|--------------|
D |-----------------|-----------------|-----------------|--------------|
A |-----------------|-----------------|-----------------|--------------|
E |-----------------|-----------------|-----------------|--------------|

9 | | | | | | | | | | | | | | | |
E |--5--5---5-5-5---|-5-5-5-5--4---|--5--5---5-5-5---|-5-5-5-5--4---|
B |-------5-------5-|--------------|-------5-------5-|--------------|
G |-----------------|--------------|-----------------|--------------|
D |-----------------|--------------|-----------------|--------------|
A |-----------------|--------------|-----------------|--------------|
E |-----------------|--------------|-----------------|--------------|

13 | | | | | | | | | | | | | | | |
E |--5--5-5-5-5-5-5-|-5-5-5-4--5--7-9-|--10-9-7--5--5---|-5-5-5---5-5-5-5-|
B |-----------------|-----------------|---------------5-|-------5---------|
G |-----------------|-----------------|-----------------|-----------------|
D |-----------------|-----------------|-----------------|-----------------|
A |-----------------|-----------------|-----------------|-----------------|
E |-----------------|-----------------|-----------------|-----------------|
1-22 Exaltar te ei
Tom:

1 | | | | | | | | | | | | | | | | | |
E |---------|-3---3-3-|-1---4-|-3----|-1---3-1-|-----1---|------|------|---------|
B |-1-1-1-4-|---------|-------|------|---------|-4-----4-|-3----|-1----|-1-1-1-4-|
G |---------|---------|-------|------|---------|---------|------|------|---------|
D |---------|---------|-------|------|---------|---------|------|------|---------|
A |---------|---------|-------|------|---------|---------|------|------|---------|
E |---------|---------|-------|------|---------|---------|------|------|---------|

10 | | | | | | | | | | | | | | | | | |
E |-3---3-3-|-1---4-|-3----|-1---3-1-|-----1---|------|------|-8---8-8-|---------|
B |---------|-------|------|---------|-4-----4-|-3----|-1----|---------|-9---9-9-|
G |---------|-------|------|---------|---------|------|------|---------|---------|
D |---------|-------|------|---------|---------|------|------|---------|---------|
A |---------|-------|------|---------|---------|------|------|---------|---------|
E |---------|-------|------|---------|---------|------|------|---------|---------|

19 | | | | | | | | | | | | | | | | | |
E |-----8-|------|-1---3-1-|-----1---|------|------|-8---8-8-|---------|-----8-|
B |-11----|-8----|---------|-4-----4-|-3----|-1----|---------|-9---9-9-|-11----|
G |-------|------|---------|---------|------|------|---------|---------|-------|
D |-------|------|---------|---------|------|------|---------|---------|-------|
A |-------|------|---------|---------|------|------|---------|---------|-------|
E |-------|------|---------|---------|------|------|---------|---------|-------|
Esta é a página - 21 -
© Copyright by Sandro Rogério Martins – Todos os direitos reservados.“A rapadura é mole, mas não é doce. Pensou que ia ser moleza!” Nada é fácil nesta vida.

28 | | | | | | | | | |
E |------|-1---3-1-|-----1---|------|------|
B |-8----|---------|-4-----4-|-3----|------|
G |------|---------|---------|------|------|
D |------|---------|---------|------|-10---|
A |------|---------|---------|------|------|
E |------|---------|---------|------|------|.

1-23 Fazme chegar


Tom:
1 | | | | | | | | | | | | | | | | | |
E |-0----0------------0----------0---1-|-0--------------------------------|
B |-----------------4------------------|---3-------------2-3--------------|
G |------------------------------------|----------------------------------|
D |------------------------------------|----------------------------------|
A |------------------------------------|----------------------------------|
E |------------------------------------|----------------------------------|

3 | | | | | | | | | | | | | | | | | |
E |-1----1------------1----------1---3-|-1---0-------------0--------------|
B |-----------------5------------------|-----------------4----------------|
G |------------------------------------|----------------------------------|
D |------------------------------------|----------------------------------|
A |------------------------------------|----------------------------------|
E |------------------------------------|----------------------------------|

5 | | | | | | | | | | | | | | | | | |
E |-3----3------------3----------3---5-|-3---------------0----------------|
B |-----------------6------------------|-----6-------------6--------------|
G |------------------------------------|----------------------------------|
D |------------------------------------|----------------------------------|
A |------------------------------------|----------------------------------|
E |------------------------------------|----------------------------------|

7 | | | | | | | | | | | | | | | | | |
E |-------------------0--------------|-0--------------------------------|
B |-6----5----------4----------------|------3----------2-3--------------|
G |----------------------------------|----------------------------------|
D |----------------------------------|----------------------------------|
A |----------------------------------|----------------------------------|
E |----------------------------------|----------------------------------|

9 | | | | | | | | |
E |-----------------------------------|
B |-3----1----------1-----------------|
G |-----------------------------------|
D |-------------------10--------------|
A |-----------------------------------|
E |-----------------------------------|
1-24 - Flua em mim
Tom:

1 | | | | | | | | | | | | | | | |
E |-3-3-3--5-3-----------|--0-----------|--------3---------3-3-|--------------|
B |-------------6-5--3-6-|--------------|-6-6-6----6--5-3------|--------------|
G |----------------------|--------------|----------------------|--------------|
D |----------------------|--------------|----------------------|--------------|
A |----------------------|--------------|----------------------|--------------|
E |----------------------|--------------|----------------------|--------------|

5 | | | | | | | | | | | | | | | |
E |-3-3-3--5-3-----3-5-7-|-7-8-0----------|-5-3-1--0----0--------|--------------|
B |----------------------|----------------|----------3----3--1-1-|--------------|
G |----------------------|----------------|----------------------|--------------|
D |----------------------|----------------|----------------------|--------------|
A |----------------------|----------------|----------------------|--------------|
E |----------------------|----------------|----------------------|--------------|

Esta é a página - 22 -
© 2008 by Tablat32 – Cópias somente com autorização

9 | | | | | | | | | | | |
E |-8-8-7-8--7----------|----------------------|-8-8-7-8--7----10-8--8-|
B |------------8------8-|----8-10--8----8------|------------8----------|
G |---------------------|-10---------10--------|-----------------------|
D |---------------------|----------------------|-----------------------|
A |---------------------|----------------------|-----------------------|
E |---------------------|----------------------|-----------------------|

12 | | | |
E |-8-7-----7-10------|
B |-----10--------13--|
G |-------------------|
D |-------------------|
A |-------------------|
E |-------------------|

1-25 - Há momentos
Tom:
1 | | | | | | | | | | | | | | | |
E |-----0-0-0-0-------0-|-0-0-0----------|-----0-0-0-0----------|----------------|
B |-2-3----------5-5----|-------3-3-2-3--|-2-3---------5-5-5--5-|-5-5-5-3-3-2-3--|
G |---------------------|----------------|----------------------|----------------|
D |---------------------|----------------|----------------------|----------------|
A |---------------------|----------------|----------------------|----------------|
E |---------------------|----------------|----------------------|----------------|

5 | | | | | | | | | | | | | | | |
E |-2-4-5------2-7-4-0-|---0----------2-|--4-5------2-7-4-0-|---0----------|
B |--------3-----------|-3--------------|-------3-----------|-3------------|
G |--------------------|----------------|-------------------|--------------|
D |--------------------|----------------|-------------------|--------------|
A |--------------------|----------------|-------------------|--------------|
E |--------------------|----------------|-------------------|--------------|

9 | | | | | | | | | | | | | | | |
E |-2-4-5--------7-4-|--4-9--10-9-7-7----|-7-9-10--9-7-5----0-7-|-5-5----------|
B |--------3---3-----|----------------10-|---------------7------|--------------|
G |------------------|-------------------|----------------------|--------------|
D |------------------|-------------------|----------------------|--------------|
A |------------------|-------------------|----------------------|--------------|
E |------------------|-------------------|----------------------|--------------|

1-26 - Hoje é tempo de louvar


Tom:

1 | | | | | | | | | | | | | | | | | |
E |-------------5---5-5--2-|-3---2---0------------|----------0--5---5-5--2-|
B |------------------------|-----------3---3------|------------------------|
G |------------------------|-------------2--------|------------------------|
D |------------------------|----------------------|------------------------|
A |------------------------|----------------------|------------------------|
E |------------------------|----------------------|------------------------|

4 | | | | | | | | | | | | | | | | | |
E |-3---2---0-----0-0----|------------------0-----|----------2--3---2------|
B |-----------3-7--------|----------7--8-7------3-|-3-----------------5--3-|
G |----------------------|------------------------|------------------------|
D |----------------------|------------------------|------------------------|
A |----------------------|------------------------|------------------------|
E |----------------------|------------------------|------------------------|

7 | | | | | | | | | | | | | | | | | |
E |---------2-2-3---2---3-2-|-3---2---0---0--------|---------2-3-5----2---|
B |-3-----------------------|-----------3----------|----------------------|
G |-------------------------|----------------------|----------------------|
D |-------------------------|----------------------|----------------------|
A |-------------------------|----------------------|----------------------|
E |-------------------------|----------------------|----------------------|

Esta é a página - 23 -
© Copyright by Sandro Rogério Martins – Todos os direitos reservados.“A rapadura é mole, mas não é doce. Pensou que ia ser moleza!” Nada é fácil nesta vida.

10 | | | | | | | | | | | | | | | | | |
E |-5----3------5-------3-2-|-5-------2-3-5----2---|-3----3------2-------3-2-|
B |-------------------------|----------------------|-------------------------|
G |-------------------------|----------------------|-------------------------|
D |-------------------------|----------------------|-------------------------|
A |-------------------------|----------------------|-------------------------|
E |-------------------------|----------------------|-------------------------|

13 | | | | | |
E |-0--------------------|
B |----------------------|
G |----------------------|
D |----------------------|
A |----------------------|
E |----------------------|

1-27 - Igreja
Tom:
1 | | | | | | | | | | | | | | | |
E |-------------7-5-|-3------------|-------------8-7-|-5------------|
B |-0---3-3-3-3-----|---3----------|-3-3-5-5-5-5-----|---5----------|
G |---5-------------|--------------|-----------------|--------------|
D |-----------------|--------------|-----------------|--------------|
A |-----------------|--------------|-----------------|--------------|
E |-----------------|--------------|-----------------|--------------|

5 | | | | | | | | | | | | | | | |
E |---2-3-3-3-3-3-5-|-7------0------|-0---3-3-3-3-3-5-|-7-5----------|
B |-5---------------|---8--7--------|---7-------------|--------------|
G |-----------------|---------------|-----------------|--------------|
D |-----------------|---------------|-----------------|--------------|
A |-----------------|---------------|-----------------|--------------|
E |-----------------|---------------|-----------------|--------------|

9 | | | | | | | | | | | | | | | |
E |-------------7-5-|-3------------|-------------8-7-|-5------------|
B |-0---3-3-3-3-----|---3----------|-3-3-5-5-5-5-----|---5----------|
G |---5-------------|--------------|-----------------|--------------|
D |-----------------|--------------|-----------------|--------------|
A |-----------------|--------------|-----------------|--------------|
E |-----------------|--------------|-----------------|--------------|

13 | | | | | | | | | | | | | | | |
E |---2-3-3-3-3-3-5-|-7------0------|-0---3-3-3-3-7-5-|---5----------|
B |-5---------------|---8--7--------|---7-------------|-8------------|
G |-----------------|---------------|-----------------|--------------|
D |-----------------|---------------|-----------------|--------------|
A |-----------------|---------------|-----------------|--------------|
E |-----------------|---------------|-----------------|--------------|

17 | | | | | | | | | | | | | | | |
E |-7-5--------------|-7-5-3------------|-7-5---5----5-7-8-8-7-|----7--5-------|
B |-----8-------3--3-|-------------3--3-|-----8---8------------|--8------------|
G |---------4-5------|---------4-5------|----------------------|---------------|
D |------------------|------------------|----------------------|---------------|
A |------------------|------------------|----------------------|---------------|
E |------------------|------------------|----------------------|---------------|

21 | | | | | | | | | | | | | | | |
E |-7-5--------------|-7-5-3------------|-7-5---5-------8-8-|-7-5---5---------|
B |-----8-------3--3-|-------------3--3-|-----8---8--5------|-----8-----------|
G |---------4-5------|---------4-5------|-------------------|---------12------|
D |------------------|------------------|-------------------|-----------------|
A |------------------|------------------|-------------------|-----------------|
E |------------------|------------------|-------------------|-----------------|

Esta é a página - 24 -
© 2008 by Tablat32 – Cópias somente com autorização

1-28 - Jesus Cristo mudou meu viver


Tom:
1 | | | | | | | | | | | | | | | |
E |-----------------|-------0------|-------0-2-2-2-2-|--0----5------|
B |-----0---2-2-2-2-|--0-----------|-----2-----------|-----3--------|
G |-2---------------|-----2--------|-----------------|--------------|
D |-----------------|--------------|-----------------|--------------|
A |-----------------|--------------|-----------------|--------------|
E |-----------------|--------------|-----------------|--------------|

5 | | | | | | | | | | | | | | | |
E |-----5-7-9---9-9-|-9-10-12--------9-|--------9-10-10-9----|-----0--------|
B |-----------------|---------10--12---|-----10-----------10-|--------------|
G |-----------------|------------------|--9------------------|--11----------|
D |-----------------|------------------|---------------------|--------------|
A |-----------------|------------------|---------------------|--------------|
E |-----------------|------------------|---------------------|--------------|

9 | | | | | | | | | | | | | | | |
E |-0---7---5----|---------------|---------------0-|---------------0-|
B |--------------|-------------0-|-2-2-2-2--0------|-------------2---|
G |--------------|---------2-----|-------------2---|-----------------|
D |--------------|---------------|-----------------|-----------------|
A |--------------|---------------|-----------------|-----------------|
E |--------------|---------------|-----------------|-----------------|

13 | | | | | | | | | | | | | | | |
E |-2-2-2-2--0----5-|-------------5-7-|-9---9-9-9-10-12----|-----9----------9-|
B |-------------3---|-----------------|-----------------10-|--12---------10---|
G |-----------------|-----------------|--------------------|----------9-------|
D |-----------------|-----------------|--------------------|------------------|
A |-----------------|-----------------|--------------------|------------------|
E |-----------------|-----------------|--------------------|------------------|

17 | | | | | | | | | | | | | | | |
E |-10-10-9----------|-------------7-|-5------------|-----5---5---5-7-|
B |---------10-----5-|---------5-----|--------------|-------7---7-----|
G |-------------11---|---------------|--------------|-----------------|
D |------------------|---------------|--------------|-----------------|
A |------------------|---------------|--------------|-----------------|
E |------------------|---------------|--------------|-----------------|

21 | | | | | | | | | | | | | | | |
E |-9-7-5-5-----5-7-|-9---9---10-9-7-7-|------------------|-9-7-7----7----------|
B |-----------------|------------------|--10---------7-10-|-------10----7--7-10-|
G |-----------------|------------------|------------------|---------------------|
D |-----------------|------------------|------------------|---------------------|
A |-----------------|------------------|------------------|---------------------|
E |-----------------|------------------|------------------|---------------------|

25 | | | | | | | | | | | | | | | |
E |-9-7-7----7---------|-9-7-7----7--------|---0----------|---------------|
B |-------10----7---10-|-------10-----10-7-|-7------------|-------------0-|
G |--------------------|-------------------|--------------|---------2-----|
D |--------------------|-------------------|--------------|---------------|
A |--------------------|-------------------|--------------|---------------|
E |--------------------|-------------------|--------------|---------------|

29 | | | | | | | | | | | | | | | |
E |---------------0-|---------------0-|-2-2-2-2--0----5-|-------------5-7-|
B |-2-2-2-2--0------|-------------2---|-------------3---|-----------------|
G |-------------2---|-----------------|-----------------|-----------------|
D |-----------------|-----------------|-----------------|-----------------|
A |-----------------|-----------------|-----------------|-----------------|
E |-----------------|-----------------|-----------------|-----------------|

Esta é a página - 25 -
© Copyright by Sandro Rogério Martins – Todos os direitos reservados.“A rapadura é mole, mas não é doce. Pensou que ia ser moleza!” Nada é fácil nesta vida.

33 | | | | | | | | | | | | | | | |
E |-9---9-9-9-10-12----|-----9----------9-|-10-10-9--------0-|---------0------|
B |-----------------10-|--12---------10---|---------10-------|-------------12-|
G |--------------------|----------9-------|-------------11---|----------------|
D |--------------------|------------------|------------------|----------------|
A |--------------------|------------------|------------------|----------------|
E |--------------------|------------------|------------------|----------------|

37 | | | |
E |--------------|
B |--------------|
G |-14-----------|
D |--------------|
A |--------------|
E |--------------|

1-29 - Jesus em tua presença


Tom:
1 | | | | | | | | | | | | | | | |
E |-----------------|----------------|-----------------|----------------|
B |---3-3-3-3-3-3---|---3-2-2---2-3--|-----3-3-3-3-3---|---3-2-2-0-2-3--|
G |-2-------------4-|-4-------4------|-2-2-----------4-|-4--------------|
D |-----------------|----------------|-----------------|----------------|
A |-----------------|----------------|-----------------|----------------|
E |-----------------|----------------|-----------------|----------------|

5 | | | | | | | | | | | | | | | |
E |---0-2-2-2-2-5-2-|-2-0-------0-2--|-----------------|--------------|
B |-3---------------|-------0--------|-----3-3-3-3-3---|-3-2-2---2-3--|
G |-----------------|-----7---7------|-2-2-----------4-|-------4------|
D |-----------------|----------------|-----------------|--------------|
A |-----------------|----------------|-----------------|--------------|
E |-----------------|----------------|-----------------|--------------|

9 | | | | | | | | | | | | | | | |
E |-----------------|----------------|-----------------|----------------|
B |---3-3-3-3-3-3---|---3-2-2---2-3--|-----3-3-3-3-3---|---3-2-2-0-2-3--|
G |-2-------------4-|-4-------4------|-2-2-----------4-|-4--------------|
D |-----------------|----------------|-----------------|----------------|
A |-----------------|----------------|-----------------|----------------|
E |-----------------|----------------|-----------------|----------------|

13 | | | | | | | | | | | | | | | |
E |---0-2-2-2-2-5-2-|-2-0-------0-2--|-----------------|--------------|
B |-3---------------|-------0--------|-----3-3-3-3-3---|-3-2-2-0------|
G |-----------------|-----7---7------|-2-2-----------4-|---------6-7--|
D |-----------------|----------------|-----------------|--------------|
A |-----------------|----------------|-----------------|--------------|
E |-----------------|----------------|-----------------|--------------|

17 | | | | | | | | | | | |
E |----7-7-7--------|---7-7-9-----7--|---7-7-7-------------|
B |-10-------7-10-7-|-7--------10----|-7-------7-10-7-10-7-|
G |-----------------|----------------|---------------------|
D |-----------------|----------------|---------------------|
A |-----------------|----------------|---------------------|
E |-----------------|----------------|---------------------|

20 | | | | | | | | | | | | | | | |
E |----7-7-7-7--7-9-7----7-9-|----7----------|--7------7-----|-0------------|
B |--7----------------10-----|-10------------|-----------10--|---7----------|
G |--------------------------|---------------|---------------|--------------|
D |--------------------------|---------------|---------------|--------------|
A |--------------------------|---------------|---------------|--------------|
E |--------------------------|---------------|---------------|--------------|

Esta é a página - 26 -
© 2008 by Tablat32 – Cópias somente com autorização

24 | | | | | | | | | | | |
E |-----7-----7-9-7----|--10-9------10-9----|------------9-----|
B |-7-7-------------10-|-------12--------12-|--12-----12----12-|
G |--------------------|--------------------|------------------|
D |--------------------|--------------------|------------------|
A |--------------------|--------------------|------------------|
E |--------------------|--------------------|------------------|

27 | | | | | | | | | | | | | | | |
E |-9-10--9-----10----|----------------|----0------------|--------------|
B |----------12----12-|---------10-10--|-----------------|--------------|
G |-------------------|----------------|-11--------------|--------------|
D |-------------------|----------------|----------12-12--|--------------|
A |-------------------|----------------|-----------------|--------------|
E |-------------------|----------------|-----------------|--------------|
1-30 - Jesus te entronizamos
Tom:

1 | | | | | | | | | | | | | | | |
E |-----3---3----3-|-3-------------|-----2-2-2--2-3--5---|---------7---5-|
B |----------------|------5--5---5-|-------------------3-|---------------|
G |----------------|---------------|---------------------|---------------|
D |----------------|---------------|---------------------|---------------|
A |----------------|---------------|---------------------|---------------|
E |----------------|---------------|---------------------|---------------|

5 | | | | | | | | | | | | | | | |
E |-3---3-3-3------3-|-2---2----------|-----7-7-7--5------5-|-----5--------|
B |------------------|-------3----3---|--------------8--5---|--------------|
G |------------------|---------4------|---------------------|--------------|
D |------------------|----------------|---------------------|--------------|
A |------------------|----------------|---------------------|--------------|
E |------------------|----------------|---------------------|--------------|

9 | | | | | | | | | | | | | | | |
E |-----3---3----3-|-3-------------|-----2-2-2--2-3--5---|---------7---5-|
B |----------------|------5--5---5-|-------------------3-|---------------|
G |----------------|---------------|---------------------|---------------|
D |----------------|---------------|---------------------|---------------|
A |----------------|---------------|---------------------|---------------|
E |----------------|---------------|---------------------|---------------|

13 | | | | | | | | | | | | | | | |
E |-3---3-3-3------3-|-2---2----------|-----7-7-7--5------5-|-----5--------|
B |------------------|-------3----3---|--------------8--5---|--------------|
G |------------------|---------4------|---------------------|--------------|
D |------------------|----------------|---------------------|--------------|
A |------------------|----------------|---------------------|--------------|
E |------------------|----------------|---------------------|--------------|

17 | | | | | | | | | | | | | | | |
E |--3--3-3-3--3---3-3-3-|-3----0--------|--5--5-5-5--5---5-7-8-|-7----5--------|
B |----------------------|---------5---5-|----------------------|---------8---8-|
G |----------------------|---------------|----------------------|---------------|
D |----------------------|---------------|----------------------|---------------|
A |----------------------|---------------|----------------------|---------------|
E |----------------------|---------------|----------------------|---------------|

21 | | | | | | | | | | | |
E |--5--5-5-5--5---5-7-8-|-7----5------5-7-|-8-7-------8-7--------|
B |----------------------|---------8-8-----|-----8--8------10-8-8-|
G |----------------------|-----------------|----------------------|
D |----------------------|-----------------|----------------------|
A |----------------------|-----------------|----------------------|
E |----------------------|-----------------|----------------------|

Esta é a página - 27 -
© Copyright by Sandro Rogério Martins – Todos os direitos reservados.“A rapadura é mole, mas não é doce. Pensou que ia ser moleza!” Nada é fácil nesta vida.

24 | | | | | | | | | | | |
E |----------------7-|-8-7-------8-7--------|----------------7-|
B |-------------10---|-----8--8------10-8-8-|-------------10---|
G |------------------|----------------------|------------------|
D |------------------|----------------------|------------------|
A |------------------|----------------------|------------------|
E |------------------|----------------------|------------------|

27 | | | | | | | |
E |-8-7-------8-7----------|--------------|
B |-----8--8------10-------|--------------|
G |------------------12-12-|--------------|
D |------------------------|--------------|
A |------------------------|--------------|
E |------------------------|--------------|
1-31 - Jesus virá outra
outra vez aqui
Tom:

1 | | | | | | | | | | | | | | | | | |
E |---------|------|-3-5-7-8-|--0---0-|--0---|------|------|--------|--0--2-|
B |-0-0---3-|--3---|---------|--------|------|-3----|------|--3---3-|-------|
G |-----5---|------|---------|--------|------|---5--|------|--------|-------|
D |---------|------|---------|--------|------|------|------|--------|-------|
A |---------|------|---------|--------|------|------|------|--------|-------|
E |---------|------|---------|--------|------|------|------|--------|-------|

10 | | | | | | | | | | | | | | | | | |
E |--3---5-|--7--5-|--3---0-|------|------|------|--------|---------|------|
B |--------|-------|--------|--3---|------|------|--0---0-|-----3-3-|--3---|
G |--------|-------|--------|------|------|------|--------|--5------|------|
D |--------|-------|--------|------|------|------|--------|---------|------|
A |--------|-------|--------|------|------|------|--------|---------|------|
E |--------|-------|--------|------|------|------|--------|---------|------|

19 | | | | | | | | | | | | | | | | | |
E |-3-5-7-8-|--0---0-|--0---|------|------|--------|--0--2-|--3---5-|--7---8-|
B |---------|--------|------|-3----|------|--3---3-|-------|--------|--------|
G |---------|--------|------|---5--|------|--------|-------|--------|--------|
D |---------|--------|------|------|------|--------|-------|--------|--------|
A |---------|--------|------|------|------|--------|-------|--------|--------|
E |---------|--------|------|------|------|--------|-------|--------|--------|

28 | | | | | | | | | | | | | | | | | |
E |--7------|------|------|------7-|------7-|-----7-|-------|------8-|--8---8-|
B |------10-|--8---|------|--------|--------|-------|-10-8--|--------|--------|
G |---------|------|------|--7-----|--------|-------|-------|--------|--------|
D |---------|------|------|--------|--------|-------|-------|--------|--------|
A |---------|------|------|--------|--------|-------|-------|--------|--------|
E |---------|------|------|--------|--------|-------|-------|--------|--------|

37 | | | | | | | | | | | | | | | | | |
E |--7--8-|-7-----|------|--------|--0----|------5-|--7---5-|------0-|------|
B |-------|---10--|------|--------|-----7-|--8-----|--------|--8-----|------|
G |-------|-------|------|--7---7-|-------|--------|--------|--------|--7---|
D |-------|-------|------|--------|-------|--------|--------|--------|------|
A |-------|-------|------|--------|-------|--------|--------|--------|------|
E |-------|-------|------|--------|-------|--------|--------|--------|------|

46 | | | | | | | | | | | | | | | | | |
E |------|------7-|------7-|-----7-|-------|------8-|--8---8-|--7--8-|-7-5--|
B |------|--------|--------|-------|-10-8--|--------|--------|-------|------|
G |------|--7-----|--------|-------|-------|--------|--------|-------|------|
D |------|--------|--------|-------|-------|--------|--------|-------|------|
A |------|--------|--------|-------|-------|--------|--------|-------|------|
E |------|--------|--------|-------|-------|--------|--------|-------|------|

Esta é a página - 28 -
© 2008 by Tablat32 – Cópias somente com autorização

55 | | | | | | | | | | | | | | | | | |
E |------|--------|--0--2-|--3---5-|--7---8-|--7---5-|------|------|------|
B |------|--3---3-|-------|--------|--------|--------|------|------|------|
G |------|--------|-------|--------|--------|--------|--12--|------|------|
D |------|--------|-------|--------|--------|--------|------|------|------|
A |------|--------|-------|--------|--------|--------|------|------|------|
E |------|--------|-------|--------|--------|--------|------|------|------|

1-32 - Maravilhoso
Tom:

1 | | | | | | | | | | | | | | | |
E |---0----0--------|-2---2-3-5-3------|---3---3-----------|--------------3-|
B |-3---3----3------|-------------3--3-|-5---3---------0-3-|-3--------------|
G |-----------------|------------------|---------5-5-5-----|----------------|
D |-----------------|------------------|-------------------|----------------|
A |-----------------|------------------|-------------------|----------------|
E |-----------------|------------------|-------------------|----------------|

5 | | | | | | | | | | | |
E |-3-3-3-5-7-5----5-|-5-5-8-7-5-5----0-|-8-7------7-7-----7----|
B |------------------|-------------8----|-----10-8-----10----10-|
G |-------------7----|------------------|-----------------------|
D |------------------|------------------|-----------------------|
A |------------------|------------------|-----------------------|
E |------------------|------------------|-----------------------|

8 | | | | | | | | | | | |
E |---------------0-2-|-5-3-3---5-3-3-2-3-|-2-0---------0-----|
B |-8-----------------|-------3-----------|---------------7-9-|
G |-------------7-----|-------------------|-------------------|
D |-------------------|-------------------|-------------------|
A |-------------------|-------------------|-------------------|
E |-------------------|-------------------|-------------------|

11 | | | | | | | | | | | |
E |-7-8--8--7-------7----|-7---------------7-8-|-10-8-7-----10-8-7--5-5-|
B |-----------10-8----10-|---10---------10-----|---------7--------------|
G |----------------------|---------------------|------------------------|
D |----------------------|---------------------|------------------------|
A |----------------------|---------------------|------------------------|
E |----------------------|---------------------|------------------------|

14 | | | | | | | | | | | |
E |-------------0-----|-7-5-5-----7-5-3--2-|-3---------------2-|
B |--8------------7-8-|--------5-----------|-------------3-5---|
G |-------------------|--------------------|-------------------|
D |-------------------|--------------------|-------------------|
A |-------------------|--------------------|-------------------|
E |-------------------|--------------------|-------------------|

17 | | | | | | | | | | | |
E |-5-3-3---5-3-3-2-3-|-2-0---------0-----|-7-8--8--7-------7----|
B |-------3-----------|---------------7-9-|-----------10-8----10-|
G |-------------------|-------------------|----------------------|
D |-------------------|-------------------|----------------------|
A |-------------------|-------------------|----------------------|
E |-------------------|-------------------|----------------------|

20 | | | | | | | | | | | |
E |-7---------------7-8-|-10-8-7-----10-8-7--5-5-|-------------0-----|
B |---10---------10-----|---------7--------------|--8------------7-8-|
G |---------------------|------------------------|-------------------|
D |---------------------|------------------------|-------------------|
A |---------------------|------------------------|-------------------|
E |---------------------|------------------------|-------------------|

Esta é a página - 29 -
© Copyright by Sandro Rogério Martins – Todos os direitos reservados.“A rapadura é mole, mas não é doce. Pensou que ia ser moleza!” Nada é fácil nesta vida.

23 | | | | | | | |
E |-7-5-5-----7-5-3--2-|-3------------|
B |--------5-----------|--------------|
G |--------------------|--------------|
D |--------------------|--------------|
A |--------------------|--------------|
E |--------------------|--------------|
1-33 - Meu coração
Tom:

1 | | | | | | | | | | | | | | | | | | | |
E |---------5-----|---------------|-------------10-|-8------------|-----8---10--8-|
B |-------------6-|-------------6-|-----6----------|--------------|---------------|
G |-----5---------|-5-------------|-7--------------|--------------|---------------|
D |---------------|---------------|----------------|--------------|---------------|
A |---------------|---------------|----------------|--------------|---------------|
E |---------------|---------------|----------------|--------------|---------------|

6 | | | | | | | | | | | | | | | | | | | |
E |--------------|-----5---------|--------------|---------5-----|---------------|
B |-8------------|---------6---8-|-6------------|-------------6-|-------------6-|
G |--------------|---------------|--------------|-----5---------|-5-------------|
D |--------------|---------------|--------------|---------------|---------------|
A |--------------|---------------|--------------|---------------|---------------|
E |--------------|---------------|--------------|---------------|---------------|

11 | | | | | | | | | | | | | | | | | | | |
E |-------------10-|-8------------|-----8---10--8-|--------------|---------------|
B |-----6----------|--------------|---------------|-8------------|-----10------8-|
G |-7--------------|--------------|---------------|--------------|---------10----|
D |----------------|--------------|---------------|--------------|---------------|
A |----------------|--------------|---------------|--------------|---------------|
E |----------------|--------------|---------------|--------------|---------------|

16 | | | | | | | | | | | | | | | |
E |--------------|----------------|-10---10-10--10-|-----10-10-10--10-|
B |--------------|---------8------|----------------|------------------|
G |-10-----------|-----10------10-|----------------|------------------|
D |--------------|----------------|----------------|------------------|
A |--------------|----------------|----------------|------------------|
E |--------------|----------------|----------------|------------------|

20 | | | | | | | | | | | | | | | | | | | |
E |-8----8--8---8-|-----8---8---8-|-6----6--6---6-|-----6---5---6-|-8------------|
B |---------------|---------------|---------------|---------------|--------------|
G |---------------|---------------|---------------|---------------|--------------|
D |---------------|---------------|---------------|---------------|--------------|
A |---------------|---------------|---------------|---------------|--------------|
E |---------------|---------------|---------------|---------------|--------------|

25 | | | | | | | | | | | | | | | |
E |---------------|-10---10-10--10-|-----10-10-10--10-|-8----8--8---8-|
B |-----6---8---6-|----------------|------------------|---------------|
G |---------------|----------------|------------------|---------------|
D |---------------|----------------|------------------|---------------|
A |---------------|----------------|------------------|---------------|
E |---------------|----------------|------------------|---------------|

29 | | | | | | | | | | | | | | | |
E |-----8---8---8-|-6----6--6---6-|-----6---5---3-|--------------|
B |---------------|---------------|---------------|--------------|
G |---------------|---------------|---------------|-10-----------|
D |---------------|---------------|---------------|--------------|
A |---------------|---------------|---------------|--------------|
E |---------------|---------------|---------------|--------------|

Esta é a página - 30 -
© 2008 by Tablat32 – Cópias somente com autorização

1-34 - Move as águas


Tom:
1 | | | | | | | | | | | | | |
E |----------|-5-3-1--3-|--------|-5-3----3-|-3----3-5-|-6-6-6--5-5-|-3----1-|
B |------1-1-|----------|-1----1-|-----6----|----------|------------|--------|
G |----------|----------|--------|----------|----------|------------|--------|
D |----------|----------|--------|----------|----------|------------|--------|
A |----------|----------|--------|----------|----------|------------|--------|
E |----------|----------|--------|----------|----------|------------|--------|

8 | | | | | | | | | | | | | |
E |-0---8----|-5--------|-5-3-1--3-|--------|-5-3----3-|-3----3-5-|-6-6-6--5-5-|
B |---8----8-|----------|----------|-1----1-|-----6----|----------|------------|
G |----------|------5-5-|----------|--------|----------|----------|------------|
D |----------|----------|----------|--------|----------|----------|------------|
A |----------|----------|----------|--------|----------|----------|------------|
E |----------|----------|----------|--------|----------|----------|------------|

15 | | | | | | | | | | | | | | | | | |
E |-3----1-|-0---8----|-5----|-----5-|-6----|------5---|------|-8---6-|-5----|
B |--------|---8----8-|------|-6-----|------|--------8-|-8----|-------|------|
G |--------|----------|------|-------|------|----------|------|-------|------|
D |--------|----------|------|-------|------|----------|------|-------|------|
A |--------|----------|------|-------|------|----------|------|-------|------|
E |--------|----------|------|-------|------|----------|------|-------|------|

24 | | | | | | | | | | | | | | | | | | | |
E |------|------|------5-|-6----|-6-5----|------|--------|------|------|-----5-|
B |-8----|-6----|-6-8----|------|------8-|-5----|-5-6--5-|-6----|-6----|-6-----|
G |------|------|--------|------|--------|------|--------|------|------|-------|
D |------|------|--------|------|--------|------|--------|------|------|-------|
A |------|------|--------|------|--------|------|--------|------|------|-------|
E |------|------|--------|------|--------|------|--------|------|------|-------|

34 | | | | | | | | | | | | | | | | | | | |
E |-6----|------5---|------|-8---6-|-5----|-3----|-1----|-1-3--5-|-6----|-6-5--3-|
B |------|--------8-|-8----|-------|------|------|------|--------|------|--------|
G |------|----------|------|-------|------|------|------|--------|------|--------|
D |------|----------|------|-------|------|------|------|--------|------|--------|
A |------|----------|------|-------|------|------|------|--------|------|--------|
E |------|----------|------|-------|------|------|------|--------|------|--------|

44 | | | | | | | | | | | |
E |-0----|-0----3-|-3----|------|------|------|
B |------|---6----|------|------|------|------|
G |------|--------|------|------|-10---|------|
D |------|--------|------|------|------|------|
A |------|--------|------|------|------|------|
E |------|--------|------|------|------|------|
1-35 - Não há Deus maior
Tom:
1 | | | | | | | | | | | | | | | |
E |---------1----5-|--------------|-----0-1-3----0-|--------------|
B |-----1-1--------|-3------------|----------------|-1------------|
G |----------------|--------------|----------------|--------------|
D |----------------|--------------|----------------|--------------|
A |----------------|--------------|----------------|--------------|
E |----------------|--------------|----------------|--------------|

5 | | | | | | | | | | | | | | | |
E |---------1----5-|-5-6----------|---------5-6-3---3-|--------------|
B |-----1-1--------|--------------|---------------6---|--6-----------|
G |----------------|--------------|-------------------|--------------|
D |----------------|--------------|-------------------|--------------|
A |----------------|--------------|-------------------|--------------|
E |----------------|--------------|-------------------|--------------|

Esta é a página - 31 -
© Copyright by Sandro Rogério Martins – Todos os direitos reservados.“A rapadura é mole, mas não é doce. Pensou que ia ser moleza!” Nada é fácil nesta vida.

9 | | | | | | | | | | | | | | | |
E |--0--0-0-----5---|-5------------|-------------5---|-5--------------|
B |---------5-5---8-|---8-6--------|--5--5-5-5-5---8-|---8-6----------|
G |-----------------|--------------|-----------------|----------------|
D |-----------------|--------------|-----------------|----------------|
A |-----------------|--------------|-----------------|----------------|
E |-----------------|--------------|-----------------|----------------|

13 | | | | | | | | | | | | | | | |
E |-6-5----------|-6-5----------|-6-5----------|--------------------|
B |-----6-8------|-----6-8------|-----6-8------|--------------6-8-6-|
G |--------------|--------------|--------------|--------------------|
D |--------------|--------------|--------------|--------------------|
A |--------------|--------------|--------------|--------------------|
E |--------------|--------------|--------------|--------------------|

17 | | | | | | | | | | | |
E |-----10-10-8--------|--8------8-13-11-10--8-10-|-----10-10-8--------|
B |-6-------------8-10-|------10------------------|---------------8-10-|
G |--------------------|--------------------------|--------------------|
D |--------------------|--------------------------|--------------------|
A |--------------------|--------------------------|--------------------|
E |--------------------|--------------------------|--------------------|

20 | | | | | | | | | | | | | | | |
E |--8-----------|-----10-10-10-----|-----15-15-13-12-10--|-----10-10-8--------|
B |--------------|--------------13--|---------------------|---------------8----|
G |--------------|------------------|---------------------|-----------------12-|
D |--------------|------------------|---------------------|--------------------|
A |--------------|------------------|---------------------|--------------------|
E |--------------|------------------|---------------------|--------------------|

24 | | | |
E |--------------|
B |--------------|
G |--10----------|
D |--------------|
A |--------------|
E |--------------|

1-36 - Não
Não vou calar meus lábios
Tom:

1 | | | | | | | | | | | | | | | |
E |---2-0---7----0-|----------3-2--|-------------2-|--2-2-0-0-----0-7-|
B |-------7---10---|--3--2-3-------|-3---2-3-------|------------7-----|
G |-2--------------|---------------|---4-----4-2---|----------4-------|
D |----------------|---------------|---------------|------------------|
A |----------------|---------------|---------------|------------------|
E |----------------|---------------|---------------|------------------|

5 | | | | | | | | | | | | | | | |
E |----0-------3--|------0---7-5-0-|----------3-2--|-------------2-|
B |--7-------7----|--0-7---7-------|--3--2-3-------|-3---2-3-------|
G |---------------|----------------|---------------|---4-----4-2---|
D |---------------|----------------|---------------|---------------|
A |---------------|----------------|---------------|---------------|
E |---------------|----------------|---------------|---------------|

9 | | | | | | | | | | | |
E |--2-2-0-0------0-7-|----0---------5-7-|-9-10-----10-9-7----|
B |-------------7-----|--7-------7-8-----|-----------------10-|
G |-----------4-------|------------------|--------------------|
D |-------------------|------------------|--------------------|
A |-------------------|------------------|--------------------|
E |-------------------|------------------|--------------------|

Esta é a página - 32 -
© 2008 by Tablat32 – Cópias somente com autorização

12 | | | | | | | | | | | | | | | |
E |---7------7----7----|-2-3------2--3-|-2-3------------2-|--0-------0-2-3-5-|
B |-7----------10---10-|---------------|-----5------------|----3--3----------|
G |--------------------|---------------|------------------|------------------|
D |--------------------|---------------|------------------|------------------|
A |--------------------|---------------|------------------|------------------|
E |--------------------|---------------|------------------|------------------|

16 | | | | | | | | | | | | | | | |
E |---7--9---10-5----|--3---2---0---|---0----------2-|--0-------0-2-3-5-|
B |-3--------------3-|--------------|-3--------------|----3--3----------|
G |------------------|--------------|----------------|------------------|
D |------------------|--------------|----------------|------------------|
A |------------------|--------------|----------------|------------------|
E |------------------|--------------|----------------|------------------|

20 | | | | | | | | | | | | | | | |
E |---7--9---10-5----|--3---2---0---|----------------|--------------|
B |-3--------------3-|--------------|----------------|--------------|
G |------------------|--------------|----------------|--------------|
D |------------------|--------------|-12-12----------|--------------|
A |------------------|--------------|----------------|--------------|
E |------------------|--------------|----------------|--------------|
1-37 - Nosso General
Tom:
1 | | | | | | | | | | | | | | | |
E |-------1-3----|-----1-----------|-------1-3-3-3-|-----3-1---------|
B |--1--4--------|---------4---1-1-|--1--4---------|---------4---1-1-|
G |--------------|-----------------|---------------|-----------------|
D |--------------|-----------------|---------------|-----------------|
A |--------------|-----------------|---------------|-----------------|
E |--------------|-----------------|---------------|-----------------|

5 | | | | | | | | | | | | | | | | | | | |
E |-----8-8-8----8-|-8----8--11--10-|-8-------8----|-8------------|-------1-3----|
B |----------------|----------------|-----11-------|--------------|--1--4--------|
G |----------------|----------------|--------------|--------------|--------------|
D |----------------|----------------|--------------|--------------|--------------|
A |----------------|----------------|--------------|--------------|--------------|
E |----------------|----------------|--------------|--------------|--------------|

10 | | | | | | | | | | | | | | | |
E |--3--3-1---------|-------1-3----|--3--3-1---------|-----8-8-8----8-|
B |---------4---1-1-|--1--4--------|---------4---1-1-|--1-------------|
G |-----------------|--------------|-----------------|----------------|
D |-----------------|--------------|-----------------|----------------|
A |-----------------|--------------|-----------------|----------------|
E |-----------------|--------------|-----------------|----------------|

14 | | | | | | | | | | | | | | | |
E |-8----10-11--10-|-8-------8----|--------------|-----8---8-8-8-8-|
B |----------------|-----11-------|--------------|-----------------|
G |----------------|--------------|--------------|-----------------|
D |----------------|--------------|--------------|-----------------|
A |----------------|--------------|--------------|-----------------|
E |----------------|--------------|--------------|-----------------|

18 | | | | | | | | | | | | | | | |
E |-8---8---------|---------8---8-|-8---8---------|---------8---8-8-|
B |---------11--8-|---------------|---------11--8-|-----------------|
G |---------------|-----8---------|---------------|-----8-----------|
D |---------------|---------------|---------------|-----------------|
A |---------------|---------------|---------------|-----------------|
E |---------------|---------------|---------------|-----------------|

Esta é a página - 33 -
© Copyright by Sandro Rogério Martins – Todos os direitos reservados.“A rapadura é mole, mas não é doce. Pensou que ia ser moleza!” Nada é fácil nesta vida.

22 | | | | | | | | | | | | | | | |
E |-8---10--11--10-|-8-------8----|--------------|-----8---8-8-8-8-|
B |----------------|-----11-------|--------------|-----------------|
G |----------------|--------------|--------------|-----------------|
D |----------------|--------------|--------------|-----------------|
A |----------------|--------------|--------------|-----------------|
E |----------------|--------------|--------------|-----------------|

26 | | | | | | | | | | | | | | | |
E |-8---8---------|---------8---8-|-8---8---------|---------8---8-8-|
B |---------11--8-|---------------|---------11--8-|-----------------|
G |---------------|-----8---------|---------------|-----8-----------|
D |---------------|---------------|---------------|-----------------|
A |---------------|---------------|---------------|-----------------|
E |---------------|---------------|---------------|-----------------|

30 | | | | | | | | | | | |
E |-8---10--11--10-|-8---6--------|--------------|
B |----------------|---------13---|--------------|
G |----------------|--------------|--------------|
D |----------------|--------------|--------------|
A |----------------|--------------|--------------|
E |----------------|--------------|--------------|

1-38 - O exército
exército de Deus
Tom:

1 | | | | | | | | | | | | | | | | | | | |
E |-5---1-------1-|---1----------|-1---5----3--5-|-3------------|-----3-------3-|
B |----------3----|-3------------|---------------|---6----------|-6--------6----|
G |---------------|--------------|---------------|--------------|---------------|
D |---------------|--------------|---------------|--------------|---------------|
A |---------------|--------------|---------------|--------------|---------------|
E |---------------|--------------|---------------|--------------|---------------|

6 | | | | | | | | | | | | | | | | | | | |
E |---3-----3----|-3---4---3---3-|--------------|-5-------------|--------------|
B |-6------------|-----------6---|-6-6----------|-----6-------6-|---6----------|
G |--------------|---------------|--------------|----------7----|-7------------|
D |--------------|---------------|--------------|---------------|--------------|
A |--------------|---------------|--------------|---------------|--------------|
E |--------------|---------------|--------------|---------------|--------------|

11 | | | | | | | | | | | | | | | | | | | |
E |-----5-------5-|--------------|-5---6---5-----|--------------|-5---6---5-----|
B |-6--------8----|-8-6-----6----|-------------8-|-6---8--------|-------------8-|
G |---------------|--------------|---------------|--------------|---------------|
D |---------------|--------------|---------------|--------------|---------------|
A |---------------|--------------|---------------|--------------|---------------|
E |---------------|--------------|---------------|--------------|---------------|

16 | | | | | | | | | | | | | | | | | | | |
E |--------------|-5---6---5-----|-----8--------10-|-----8---------|--------------|
B |-6---8--------|-------------8-|-6---------------|-10------9---9-|-9------------|
G |--------------|---------------|-----------------|---------------|-----10-------|
D |--------------|---------------|-----------------|---------------|--------------|
A |--------------|---------------|-----------------|---------------|--------------|
E |--------------|---------------|-----------------|---------------|--------------|
1-39 - O nome de Jesus
Tom:

1 | | | | | | | | | | | | | | | |
E |---3--3-5--3-3--3-2-|--3-7-----5----|---3--3-5--3-3--3-2-|--3-7-----5----|
B |-3------------------|---------------|-3------------------|---------------|
G |--------------------|---------------|--------------------|---------------|
D |--------------------|---------------|--------------------|---------------|
A |--------------------|---------------|--------------------|---------------|
E |--------------------|---------------|--------------------|---------------|

Esta é a página - 34 -
© 2008 by Tablat32 – Cópias somente com autorização

5 | | | | | | | | | | | | | | | |
E |------2--3----3-|------2--3-5-3-2-3-|------2--3----3-|--3-5--3--2-3--|
B |--5--------3----|--5----------------|--5--------3----|---------------|
G |----------------|-------------------|----------------|---------------|
D |----------------|-------------------|----------------|---------------|
A |----------------|-------------------|----------------|---------------|
E |----------------|-------------------|----------------|---------------|
1-40 - O sabão
Tom:

1 | | | | | | | | | | | | | | | |
E |--------------|-0-0-0---0---0-|-0-0-0---0---0-0-|-0---3-5-2----|
B |-3-------3----|-------7-------|-------7---------|---7----------|
G |-----2--------|---------------|-----------------|--------------|
D |--------------|---------------|-----------------|--------------|
A |--------------|---------------|-----------------|--------------|
E |--------------|---------------|-----------------|--------------|

5 | | | | | | | | | | | | | | | |
E |-2---2---2----2-|-2-2-3-5-7---3-|-2-2-2-3-2---0-|--------------|
B |----------------|---------------|---------------|--------------|
G |----------------|---------------|---------------|--------------|
D |----------------|---------------|---------------|-12-----------|
A |----------------|---------------|---------------|--------------|
E |----------------|---------------|---------------|--------------|
1-41 - O trenzinho comilão
Tom:

1 | | | | | | | | | | | | | | | | | |
E |-----0-2-|-4---4-4-|-2---7-|-0---0-|------|-----0-2-|-4---4-4-|-----0-|------7-|
B |---------|---------|-------|-------|------|---------|---------|-7-----|-7------|
G |---------|---------|-------|-------|------|---------|---------|-------|--------|
D |---------|---------|-------|-------|------|---------|---------|-------|--------|
A |---------|---------|-------|-------|------|---------|---------|-------|--------|
E |---------|---------|-------|-------|------|---------|---------|-------|--------|

10 | | | | | | | | | | | | | | | |
E |---7---7-|-0---0---|-4---4-4-|-----7-|-0---0-|-----0---|-4---4-4-|-2-2-2-2-|
B |-5---5---|-------7-|---------|-7-----|-------|-------7-|---------|---------|
G |---------|---------|---------|-------|-------|---------|---------|---------|
D |---------|---------|---------|-------|-------|---------|---------|---------|
A |---------|---------|---------|-------|-------|---------|---------|---------|
E |---------|---------|---------|-------|-------|---------|---------|---------|

18 | |
E |-0----|
B |------|
G |------|
D |------|
A |------|
E |------|

1-42 - Oferta de amor


Tom:
1 | | | | | | | | | | | | | | | |
E |---------------2--5-3-|--------------|---2-3--5-3---------|-----0-------------|
B |-3-3-3--3-3--3--------|--------------|-5-----------3-3--3-|---3----3---3------|
G |----------------------|--------------|--------------------|-5--------5--------|
D |----------------------|--------------|--------------------|-------------------|
A |----------------------|--------------|--------------------|-------------------|
E |----------------------|--------------|--------------------|-------------------|

5 | | | | | | | | | | | | | | | |
E |-----------------5-|--3--2-3------|-0------5-------0---|--------------|
B |-3-3-3--3-3--3-----|--------------|---7-8----8--7----7-|-8------------|
G |-------------------|--------------|--------------------|--------------|
D |-------------------|--------------|--------------------|--------------|
A |-------------------|--------------|--------------------|--------------|
E |-------------------|--------------|--------------------|--------------|
Esta é a página - 35 -
© Copyright by Sandro Rogério Martins – Todos os direitos reservados.“A rapadura é mole, mas não é doce. Pensou que ia ser moleza!” Nada é fácil nesta vida.

9 | | | | | | | | | | | | | | | |
E |-0-------7----7---|-------------0-|-------------5-7-|--------------|
B |-----------10-----|---------------|---------7-8-----|--------------|
G |----------------7-|---------------|-----------------|--------------|
D |------------------|---------------|-----------------|--------------|
A |------------------|---------------|-----------------|--------------|
E |------------------|---------------|-----------------|--------------|

13 | | | | | | | | | | | | | | | |
E |-5-7-5------------|---5------------|-0---3--5--3-2---2-0-|--------------|
B |----------------7-|-8---8----------|---7-----------5-----|-3------------|
G |------------------|----------------|---------------------|--------------|
D |------------------|----------------|---------------------|--------------|
A |------------------|----------------|---------------------|--------------|
E |------------------|----------------|---------------------|--------------|

17 | | | | | | | | | | | | | | | |
E |-0-2-3--5-3--2-5----|-7-8-7--5-5--3---|---2-3-3--2--2-3-|--------------|
B |------------------3-|-----------------|-5---------------|--------------|
G |--------------------|-----------------|-----------------|--------------|
D |--------------------|-----------------|-----------------|--------------|
A |--------------------|-----------------|-----------------|--------------|
E |--------------------|-----------------|-----------------|--------------|

21 | | | | | | | | | | | | | | | |
E |---2-3-3--2---5-|-7-8-7-5------0-|-0-2-3-3--2---2-|-3------------|
B |-5--------------|----------8-----|----------------|--------------|
G |----------------|----------------|----------------|--------------|
D |----------------|----------------|----------------|--------------|
A |----------------|----------------|----------------|--------------|
E |----------------|----------------|----------------|--------------|

1-43 - Oração da família


Tom:

1 | | | | | | | | | | | |
E |--------10-------10-------10-------|-10--------------------------|
B |--10-13----13-10----13-10----13-10-|----13------------------8-10-|
G |-----------------------------------|-------10-9------------------|
D |-----------------------------------|-----------------------------|
A |-----------------------------------|-----------------------------|
E |-----------------------------------|-----------------------------|

3 | | | | | | | | | | | | | | | | | |
E |----8-10-8----------0----|-------------------5-5-5-|-5-5-5-5-5-5-5---------|
B |-11---------8--8------6--|--------------6--8-------|---------------8-6-6-5-|
G |-----------------10------|-------------------------|-----------------------|
D |-------------------------|-------------------------|-----------------------|
A |-------------------------|-------------------------|-----------------------|
E |-------------------------|-------------------------|-----------------------|

6 | | | | | | | | | | | | | | | | | |
E |-----------------5-6-6-6-|-6-6-6-6-6-6-6-5------|-------------------5-5-5-|
B |--------------8----------|-----------------8----|--------------6--8-------|
G |-------------------------|-------------------5--|-------------------------|
D |-------------------------|----------------------|-------------------------|
A |-------------------------|----------------------|-------------------------|
E |-------------------------|----------------------|-------------------------|

9 | | | | | | | | | | | | | | | | | |
E |-5-5-5-5-5-5-5---------|-----------------5-6-6-6-|-6-6-6-6-5-6-10-8-6-6--|
B |---------------8-6-6-5-|--------------8----------|-----------------------|
G |-----------------------|-------------------------|-----------------------|
D |-----------------------|-------------------------|-----------------------|
A |-----------------------|-------------------------|-----------------------|
E |-----------------------|-------------------------|-----------------------|
Esta é a página - 36 -
© 2008 by Tablat32 – Cópias somente com autorização

12 | | | | | | | | | | | |
E |--------------8--6-5-5-5-|-5-6----13-13-13-13-12-5-6--|
B |-------------------------|-----13---------------------|
G |-------------------------|----------------------------|
D |-------------------------|----------------------------|
A |-------------------------|----------------------------|
E |-------------------------|----------------------------|

14 | | | | | | | | | | | |
E |--------------6--5-3-3-3-|-3-5-6-12-12-12-12-10-8-----|
B |-------------------------|------------------------10--|
G |-------------------------|----------------------------|
D |-------------------------|----------------------------|
A |-------------------------|----------------------------|
E |-------------------------|----------------------------|

16 | | | | | | | | | | | |
E |--------------8--6-5-5-5-|-5-6----13-13-13-13-12-5-6--|
B |-------------------------|-----13---------------------|
G |-------------------------|----------------------------|
D |-------------------------|----------------------------|
A |-------------------------|----------------------------|
E |-------------------------|----------------------------|

18 | | | | | | | | | | | | | | | | | |
E |--------------8--6-3-3-3-|-3-5-6-8-6-5-3---0-----|--------------------10-------|
B |-------------------------|---------------6-------|--------------10-13----13-10-|
G |-------------------------|-------------------10--|-----------------------------|
D |-------------------------|-----------------------|-----------------------------|
A |-------------------------|-----------------------|-----------------------------|
E |-------------------------|-----------------------|-----------------------------|

21 | | | | | | | | |
E |--10-------10--------------------------------8-10--8-|
B |-----13-10-----13-----------------8---10-11----------|
G |------------------10--9------------------------------|
D |-----------------------------------------------------|
A |-----------------------------------------------------|
E |-----------------------------------------------------|

22 | | | | | | | | |
E |---------------8---------------8-10--8-----10----|
B |--8-11--10-11--------------10----------10-----13-|
G |-------------------------------------------------|
D |-------------------------------------------------|
A |-------------------------------------------------|
E |-------------------------------------------------|

23 | | | | | | | | |
E |-----10--------------------------------8-10--8-|
B |--10-----13-----------------8---10-11----------|
G |------------10--9------------------------------|
D |-----------------------------------------------|
A |-----------------------------------------------|
E |-----------------------------------------------|

24 | | | | | | | | |
E |----------0--------------------------|
B |--8-8--------------------------------|
G |-------10----10----------------------|
D |-------------------------------------|
A |-------------------------------------|
E |-------------------------------------|

Esta é a página - 37 -
© Copyright by Sandro Rogério Martins – Todos os direitos reservados.“A rapadura é mole, mas não é doce. Pensou que ia ser moleza!” Nada é fácil nesta vida.

1-44 - Primeiro amor


Tom:

1 | | | | | | | | | | | | | | |
E |------------|-------------|------------|--------------|------------|
B |-5---5----5-|-5-------5-5-|-5----------|--------------|-5---5----8-|
G |------------|-------------|-----7----5-|-5---4----5-7-|------------|
D |------------|-------------|------------|--------------|------------|
A |------------|-------------|------------|--------------|------------|
E |------------|-------------|------------|--------------|------------|

6 | | | | | | | | | | | | | | | | | |
E |-5--------5-|----------|----------|-5---5----5-|-5----------|-----0--------|
B |-----8------|----------|----------|------------|-----8----6-|-6------------|
G |------------|-5--------|----------|------------|------------|----------2-2-|
D |------------|----------|----------|------------|------------|--------------|
A |------------|----------|----------|------------|------------|--------------|
E |------------|----------|----------|------------|------------|--------------|

12 | | | | | | | | | | | | | | | | | |
E |-1---1----3-|-5-------5-|-5-------5-|-7--------|----------|-8---8----8-|
B |------------|-----------|-----8-----|----------|----------|------------|
G |------------|-----------|-----------|----------|----------|------------|
D |------------|-----------|-----------|----------|----------|------------|
A |------------|-----------|-----------|----------|----------|------------|
E |------------|-----------|-----------|----------|----------|------------|

18 | | | | | | | | | | | | | | | | | |
E |-8---10---12-|-10--8----8-|-8---7----5-|-8-------8-|-8---7----5-|----------|
B |-------------|------------|------------|-----------|------------|-5--------|
G |-------------|------------|------------|-----------|------------|----------|
D |-------------|------------|------------|-----------|------------|----------|
A |-------------|------------|------------|-----------|------------|----------|
E |-------------|------------|------------|-----------|------------|----------|

24 | | | | | | | | | | | | | | | | | |
E |----------|-0---0----0-|-0----------|-3-------3-3-|-3---1----0-|-8-------8-8-|
B |----------|------------|-----3----1-|-------------|------------|-------------|
G |----------|------------|------------|-------------|------------|-------------|
D |----------|------------|------------|-------------|------------|-------------|
A |----------|------------|------------|-------------|------------|-------------|
E |----------|------------|------------|-------------|------------|-------------|

30 | | | | | | | | | | | | | | | | | |
E |-8---7----8-|-10-------|---------8-|-8----8--8-|-8---12---12-|-12--10--8-10-|
B |------------|----------|-8---------|-----------|-------------|--------------|
G |------------|----------|-----------|-----------|-------------|--------------|
D |------------|----------|-----------|-----------|-------------|--------------|
A |------------|----------|-----------|-----------|-------------|--------------|
E |------------|----------|-----------|-----------|-------------|--------------|

36 | | | | | | | | | | | | | | | | | |
E |------------|-10--8---7-8-|-----8---------|-8----------|----------|----------|
B |-----8----8-|-------------|---------10-10-|-----10--12-|-13-------|----------|
G |------------|-------------|---------------|------------|----------|----------|
D |------------|-------------|---------------|------------|----------|----------|
A |------------|-------------|---------------|------------|----------|----------|
E |------------|-------------|---------------|------------|----------|----------|
1-45 - Quão bom e maravilhoso
Tom:

1 | | | | | | | | | | | | | | | |
E |-----5----5----5-|-6---5--------|---5-------------|---5----------|
B |-------------8---|---8-----8-6--|-6---8---8-8-8-6-|-8------------|
G |-5---------------|--------------|-----------------|--------------|
D |-----------------|--------------|-----------------|--------------|
A |-----------------|--------------|-----------------|--------------|
E |-----------------|--------------|-----------------|--------------|

Esta é a página - 38 -
© 2008 by Tablat32 – Cópias somente com autorização

5 | | | | | | | | | | | | | | | |
E |-----5----5----5-|-6---5--------|---5-3---3-3-3-1-|-3-1----------|
B |-------------8---|---8-----8-6--|-6---------------|--------------|
G |-5---------------|--------------|-----------------|--------------|
D |-----------------|--------------|-----------------|--------------|
A |-----------------|--------------|-----------------|--------------|
E |-----------------|--------------|-----------------|--------------|

9 | | | | | | | | | | | | | | | |
E |-1---10---------|-10-------------|-----3---3-3----|-3-5-----8----|
B |---------11-----|-----13--10-----|-10-----------6-|--------------|
G |------------10--|------------10--|----------------|--------------|
D |----------------|----------------|----------------|--------------|
A |----------------|----------------|----------------|--------------|
E |----------------|----------------|----------------|--------------|

13 | | | | | | | | | | | | | | | | | | | |
E |-----10--6----|-10--8---5----|-5-----------5-|-7---8---6---5-|-----5----5----5-|
B |-6---------6--|-----------6--|-----8---8-----|---------------|-------------8---|
G |--------------|--------------|---------------|---------------|-5---------------|
D |--------------|--------------|---------------|---------------|-----------------|
A |--------------|--------------|---------------|---------------|-----------------|
E |--------------|--------------|---------------|---------------|-----------------|

18 | | | | | | | | | | | | | | | |
E |-6---5--------|---5-------------|---5----------|-----5----5----5-|
B |---8-----8-6--|-6---8---8-8-8-6-|-8------------|-------------8---|
G |--------------|-----------------|--------------|-5---------------|
D |--------------|-----------------|--------------|-----------------|
A |--------------|-----------------|--------------|-----------------|
E |--------------|-----------------|--------------|-----------------|

22 | | | | | | | | | | | |
E |-6---5--------|---5-3---3-3-3---|-3-------------|
B |---8-----8-6--|-6-------------6-|---------------|
G |--------------|-----------------|---10----------|
D |--------------|-----------------|---------------|
A |--------------|-----------------|---------------|
E |--------------|-----------------|---------------|

1-46 - Quero louvar-


louvar-te
Tom:

1 | | | | | | | | | | | | | | | |
E |-------------0-2-|-5-------3----|-5-5-5-3-3--7--5---|---------0----|
B |----------3------|--------------|-----------------8-|-7------------|
G |-----------------|--------------|-------------------|--------------|
D |-----------------|--------------|-------------------|--------------|
A |-----------------|--------------|-------------------|--------------|
E |-----------------|--------------|-------------------|--------------|

5 | | | | | | | | | | | | | | | |
E |-------0-0------0-|-8-7----------------|-8-7---------7-------|-7------------|
B |-7-7-7------------|-----10-8-8-------8-|-----10-8-8-----10-8-|--------------|
G |------------------|----------------9---|---------------------|--------------|
D |------------------|--------------------|---------------------|--------------|
A |------------------|--------------------|---------------------|--------------|
E |------------------|--------------------|---------------------|--------------|

9 | | | | | | | | | | | | | | | |
E |--------------10-|-10--10-7-7------|-10-10-10-7-7------10-|-10--10-7-7---7-10-|
B |-10--------------|-----------------|----------------------|-------------------|
G |-----------------|-----------------|----------------------|-------------------|
D |-----------------|-----------------|----------------------|-------------------|
A |-----------------|-----------------|----------------------|-------------------|
E |-----------------|-----------------|----------------------|-------------------|

Esta é a página - 39 -
© Copyright by Sandro Rogério Martins – Todos os direitos reservados.“A rapadura é mole, mas não é doce. Pensou que ia ser moleza!” Nada é fácil nesta vida.

13 | | | | | | | | | | | | | | | |
E |-10-10-10-7-7------|-12-10-8-7-8------|-12-10-8-7-8--10-8-7-|-10----------10-|
B |-------------------|------------------|---------------------|----------------|
G |-------------------|------------------|---------------------|----------------|
D |-------------------|------------------|---------------------|----------------|
A |-------------------|------------------|---------------------|----------------|
E |-------------------|------------------|---------------------|----------------|

17 | | | | | | | | | | | | | | | |
E |-10----------0---|-5------------|-5-5-5------7--5---|---------0----|
B |---------------7-|---------8----|-------8-8-------8-|-7------------|
G |----------7------|--------------|-------------------|--------------|
D |-----------------|--------------|-------------------|--------------|
A |-----------------|--------------|-------------------|--------------|
E |-----------------|--------------|-------------------|--------------|

21 | | | | | | | | | | | | | | | |
E |-------0-0------0-|-8-7----------------|-8-7---------7-------|-7------------|
B |-7-7-7------------|-----10-8-8-------8-|-----10-8-8-----10-8-|--------------|
G |------------------|----------------9---|---------------------|--------------|
D |------------------|--------------------|---------------------|--------------|
A |------------------|--------------------|---------------------|--------------|
E |------------------|--------------------|---------------------|--------------|

25 | | | | | | | | | | | | | | | |
E |--------------10-|-10--10-7-7------|-10-10-10-7-7------10-|-10--10-7-7---7-10-|
B |-10--------------|-----------------|----------------------|-------------------|
G |-----------------|-----------------|----------------------|-------------------|
D |-----------------|-----------------|----------------------|-------------------|
A |-----------------|-----------------|----------------------|-------------------|
E |-----------------|-----------------|----------------------|-------------------|

29 | | | | | | | | | | | | | | | |
E |-10-10-10-7-7------|-12-10-8-7-8------|-12-10-8-7-8--10-8-7-|-10----------10-|
B |-------------------|------------------|---------------------|----------------|
G |-------------------|------------------|---------------------|----------------|
D |-------------------|------------------|---------------------|----------------|
A |-------------------|------------------|---------------------|----------------|
E |-------------------|------------------|---------------------|----------------|

33 | | | | | | | |
E |-10----------0----|--------------|
B |------------------|--------------|
G |----------7----11-|-14------12---|
D |------------------|--------------|
A |------------------|--------------|
E |------------------|--------------|

1-47 - Rei das nações


Tom:
1 | | | | | | | | | | | | | | | |
E |-0-0-0-------0-5-|---------0------|-----------4-5--10-|-9-------7----|
B |-----------------|-7------------7-|-7-------7---------|--------------|
G |----------6------|----------------|-------------------|--------------|
D |-----------------|----------------|-------------------|--------------|
A |-----------------|----------------|-------------------|--------------|
E |-----------------|----------------|-------------------|--------------|

5 | | | | | | | | | | | | | | | |
E |-10-10--9--10-9-7--5---|---------------5-|--------------|---------------5-|
B |---------------------7-|----------7--7---|-7-------5----|-5-5-5-------5---|
G |-----------------------|-----------------|--------------|----------6------|
D |-----------------------|-----------------|--------------|-----------------|
A |-----------------------|-----------------|--------------|-----------------|
E |-----------------------|-----------------|--------------|-----------------|

Esta é a página - 40 -
© 2008 by Tablat32 – Cópias somente com autorização

9 | | | | | | | | | | | | | | | |
E |---------0------|-----------------10-|-9-------7----|-10-10--9--10-9-7--5-2-|
B |-7------------7-|-7-------7-9-10-----|--------------|-----------------------|
G |----------------|--------------------|--------------|-----------------------|
D |----------------|--------------------|--------------|-----------------------|
A |----------------|--------------------|--------------|-----------------------|
E |----------------|--------------------|--------------|-----------------------|

13 | | | | | | | | | | | | | | | |
E |----------2--2-5-|-2-------0------|-9-9-12-10-9------|-9-9-9-12-10--9---------|
B |-----------------|----------------|------------------|------------------10-12-|
G |-----------------|--------------9-|------------------|------------------------|
D |-----------------|----------------|------------------|------------------------|
A |-----------------|----------------|------------------|------------------------|
E |-----------------|----------------|------------------|------------------------|

17 | | | | | | | | | | | |
E |-9-9-9--9--10-9--9-|-----------------|-10-10-12-10------|
B |-------------------|-----------------|------------------|
G |-------------------|---------11---11-|------------------|
D |-------------------|-----------------|------------------|
A |-------------------|-----------------|------------------|
E |-------------------|-----------------|------------------|

20 | | | | | | | | | | | |
E |-10-10-10-10-12-12--10-----|-10--9----------|-10------9------|
B |------------------------12-|---------10--12-|----------------|
G |---------------------------|----------------|--------------9-|
D |---------------------------|----------------|----------------|
A |---------------------------|----------------|----------------|
E |---------------------------|----------------|----------------|

23 | | | | | | | | | | | |
E |-9-9-12-10-9------|-9-9-9-9-12-10-9--------|-9-9-9--9--10-9--9-|
B |------------------|------------------10-12-|-------------------|
G |------------------|------------------------|-------------------|
D |------------------|------------------------|-------------------|
A |------------------|------------------------|-------------------|
E |------------------|------------------------|-------------------|

26 | | | | | | | | | | | |
E |-9---------------|-10-10-12-10--9-----|-10-10-10-10-12-12--9------|
B |-----------------|----------------12--|------------------------12-|
G |---------11---11-|--------------------|---------------------------|
D |-----------------|--------------------|---------------------------|
A |-----------------|--------------------|---------------------------|
E |-----------------|--------------------|---------------------------|

29 | | | | | | | |
E |-10--9----------|--------------|
B |---------10--12-|-12-----------|
G |----------------|------14------|
D |----------------|--------------|
A |----------------|--------------|
E |----------------|--------------|

1-48 - Renova-
Renova-me
Tom:
1 | | | | | | | | | | | | | | | | | | | |
E |---2-----5-3--|-2-------3-2--|------3--3-2-----|-2-2----------|---2-----5-3--|
B |--------------|---5----------|-------------5-3-|-----5--------|--------------|
G |-2------------|--------------|-----------------|--------------|-2------------|
D |--------------|--------------|-----------------|--------------|--------------|
A |--------------|--------------|-----------------|--------------|--------------|
E |--------------|--------------|-----------------|--------------|--------------|

Esta é a página - 41 -
© Copyright by Sandro Rogério Martins – Todos os direitos reservados.“A rapadura é mole, mas não é doce. Pensou que ia ser moleza!” Nada é fácil nesta vida.

6 | | | | | | | | | | | | | | | | | | | |
E |-2-------3-2--|------3--3-2-----|-2------------2-|-3-5-----5-5--|-5-5-----3-2--|
B |---5----------|-------------5-3-|-----5----------|--------------|--------------|
G |--------------|-----------------|----------------|--------------|--------------|
D |--------------|-----------------|----------------|--------------|--------------|
A |--------------|-----------------|----------------|--------------|--------------|
E |--------------|-----------------|----------------|--------------|--------------|

11 | | | | | | | | | | | | | | | |
E |------3--2-3-2-3-|-5-7--7------0-|----------------|---5------5---5-|
B |-----------------|---------8-7---|--------------7-|-8--------------|
G |-----------------|---------------|----------------|----------------|
D |-----------------|---------------|----------------|----------------|
A |-----------------|---------------|----------------|----------------|
E |-----------------|---------------|----------------|----------------|

15 | | | | | | | | | | | | | | | |
E |-5--------5--7-|-9-10------9--10-|-2--------3--2-0-|---------0-----|
B |---------------|-----------------|-----------------|-3-2-----------|
G |---------------|-----------------|-----------------|---------------|
D |---------------|-----------------|-----------------|-----------12--|
A |---------------|-----------------|-----------------|---------------|
E |---------------|-----------------|-----------------|---------------|

1-49 - Rompendo em fé
Tom:
1 | | | | | | | | | | | | | | | |
E |------------------|---------0----|-------------------|--------------|
B |-0-1-3-3-3-3-3--3-|-3-3----------|---0-1-1-1-1-1-0---|---0-3-3------|
G |------------------|--------------|-2---------------2-|-0------------|
D |------------------|--------------|-------------------|--------------|
A |------------------|--------------|-------------------|--------------|
E |------------------|--------------|-------------------|--------------|

5 | | | | | | | | | | | | | | | |
E |-0-2-3-3---3-3-7-|-3-2-----0-----|-----------------0-|-0------------|
B |-----------------|-----3-0-----3-|-1-0-----0-1---3---|-----3---3----|
G |-----------------|---------------|-----2-2-----------|-------4------|
D |-----------------|---------------|-------------------|--------------|
A |-----------------|---------------|-------------------|--------------|
E |-----------------|---------------|-------------------|--------------|

9 | | | | | | | | | | | | | | | |
E |---------------7-5-|-3-3----------|---------------5-2-|-0---0----------|
B |-----3-3-----------|-----1---1-1--|-----1-1-1-1-1-----|---3---3--------|
G |-4-5-------5-5-----|--------------|-2-4---------------|----------------|
D |-------------------|--------------|-------------------|----------------|
A |-------------------|--------------|-------------------|----------------|
E |-------------------|--------------|-------------------|----------------|

13 | | | | | | | | | | | | | | | |
E |---------0--------|-----0-2-3----|-3-5-7-5-7-8-5---5-|-7-5---------5-7-|
B |-1-0-------3----3-|-3-4----------|---------------8---|-----8----8------|
G |-----2-2----------|--------------|-------------------|-----------------|
D |------------------|--------------|-------------------|-----------------|
A |------------------|--------------|-------------------|-----------------|
E |------------------|--------------|-------------------|-----------------|

17 | | | | | | | | | | | | | | | |
E |-7------------|-5-7-8--7-8--7-8--7-5-|----5--7-7-----5-7-|-7-------8----|
B |--------------|----------------------|--8---------8------|--------------|
G |--------------|----------------------|-------------------|--------------|
D |--------------|----------------------|-------------------|--------------|
A |--------------|----------------------|-------------------|--------------|
E |--------------|----------------------|-------------------|--------------|

Esta é a página - 42 -
© 2008 by Tablat32 – Cópias somente com autorização

21 | | | | | | | | | | | | | | | |
E |-5-7-8--7-8--7-8--7-5-|----5--7-7------3-|-2---2-3-----3-|---0---7-7-------|
B |----------------------|--8---------------|---5-----3-----|-3---8--------10-|
G |----------------------|------------------|---------------|-----------------|
D |----------------------|------------------|---------------|-----------------|
A |----------------------|------------------|---------------|-----------------|
E |----------------------|------------------|---------------|-----------------|

25 | | | | | | | |
E |----7-8--7-8--7-----7----|----------------|
B |-10-------------10----10-|----------------|
G |-------------------------|-12-12----------|
D |-------------------------|----------------|
A |-------------------------|----------------|
E |-------------------------|----------------|
1-50 - Santo espírito
Tom:
1 | | | | | | | | | | | | | | | |
E |-3-3-3---0-------|--------------|-3-3-3---0-----|---0----------|
B |-----------3-1-1-|-3-1---1------|-----------3-1-|-3---3--------|
G |-----------------|-----2--------|---------------|--------------|
D |-----------------|--------------|---------------|--------------|
A |-----------------|--------------|---------------|--------------|
E |-----------------|--------------|---------------|--------------|

5 | | | | | | | | | | | | | | | | | | | |
E |-3-3-3---0-------|--------------|-----0-3-3-----|--------------|-----3----0----|
B |-----------3-1-1-|-3-1---1------|-1-3-------6-5-|-3------------|---------------|
G |-----------------|-----2--------|---------------|-----5--------|-------------5-|
D |-----------------|--------------|---------------|--------------|---------------|
A |-----------------|--------------|---------------|--------------|---------------|
E |-----------------|--------------|---------------|--------------|---------------|

10 | | | | | | | | | | | | | | | |
E |-----5---------|-----7-----------|---------5-----|---------------|
B |----------6----|----------10-8-6-|-5-----------8-|-----8----5----|
G |-5-----------7-|-7---------------|---7-5---------|-------------5-|
D |---------------|-----------------|---------------|---------------|
A |---------------|-----------------|---------------|---------------|
E |---------------|-----------------|---------------|---------------|

14 | | | | | | | | | | | | | | | |
E |-----5---------|-----7-----------|----7-8---8---8-|---------------|
B |----------6----|----------10-8-8-|-10-------------|-8----5--------|
G |-5-----------7-|-7---------------|----------------|---------5---5-|
D |---------------|-----------------|----------------|---------------|
A |---------------|-----------------|----------------|---------------|
E |---------------|-----------------|----------------|---------------|

18 | | | | | | | | | | | | | | | |
E |-5-------------|-7---------------|-----5--------|---------------|
B |------6--------|------10-8-6-5---|---------8----|-8----5--------|
G |---------7---7-|---------------7-|-5------------|---------5---5-|
D |---------------|-----------------|--------------|---------------|
A |---------------|-----------------|--------------|---------------|
E |---------------|-----------------|--------------|---------------|

22 | | | | | | | | | | | |
E |-5-------------|-7--------------7-|-8---8---8----|
B |------6--------|------10-8-8-10---|--------------|
G |---------7---7-|------------------|--------------|
D |---------------|------------------|--------------|
A |---------------|------------------|--------------|
E |---------------|------------------|--------------|

Esta é a página - 43 -
© Copyright by Sandro Rogério Martins – Todos os direitos reservados.“A rapadura é mole, mas não é doce. Pensou que ia ser moleza!” Nada é fácil nesta vida.

1-51 - Satisfação
Tom:
1 | | | | | | | | | | | | | | | |
E |-3---3----------|-3---6---4---3-|---0------------|-----4---3-----|
B |---6----------4-|---------------|-6---6--------3-|-6-----------6-|
G |---------3------|---------------|---------3------|---------------|
D |----------------|---------------|----------------|---------------|
A |----------------|---------------|----------------|---------------|
E |----------------|---------------|----------------|---------------|

5 | | | | | | | | | | | | | | | |
E |-3-2-3--------3-|-----11--8---4-|-3-2-3---------|-------------3---|
B |---------4------|-11------------|---------6---6-|-4-------------6-|
G |----------------|---------------|---------------|-----------------|
D |----------------|---------------|---------------|-----------------|
A |----------------|---------------|---------------|-----------------|
E |----------------|---------------|---------------|-----------------|

9 | | | | | | | | | | | | | | | |
E |-3-----------3-|-6---4---3-----0-|---------------|-4---3-------3-2-|
B |----------4----|-------------6---|-6--------3--6-|---------6-------|
G |-----3---------|-----------------|-----3---------|-----------------|
D |---------------|-----------------|---------------|-----------------|
A |---------------|-----------------|---------------|-----------------|
E |---------------|-----------------|---------------|-----------------|

13 | | | | | | | | | | | | | | | |
E |-3--------3--6-|-11--8-----------|---------------|---------6---8-|
B |-----4---------|---------9---8-7-|-8---6---6-----|---------------|
G |---------------|-----------------|-------------8-|---------------|
D |---------------|-----------------|---------------|---------------|
A |---------------|-----------------|---------------|---------------|
E |---------------|-----------------|---------------|---------------|

17 | | | | | | | | | | | | | | | |
E |---------11--10-|---------10--8-8-|--8--6---4---3-|---------3---3-|
B |----------------|-----------------|---------------|---------------|
G |----------------|-----------------|---------------|---------------|
D |----------------|-----------------|---------------|---------------|
A |----------------|-----------------|---------------|---------------|
E |----------------|-----------------|---------------|---------------|

21 | | | | | | | | | | | | | | | |
E |-----3---3-----|-----------------|-----3---5---6-|-4---3-------3---|
B |-------------6-|-4-------4---6-6-|--6------------|---------6-----6-|
G |---------------|-----------------|---------------|-----------------|
D |---------------|-----------------|---------------|-----------------|
A |---------------|-----------------|---------------|-----------------|
E |---------------|-----------------|---------------|-----------------|

25 | | | | | | | | | | | | | | | |
E |-3-----------3-|-6---4---3-----0-|---------------|-4---3-------3-2-|
B |----------4----|-------------6---|-6--------3--6-|---------6-------|
G |-----3---------|-----------------|-----3---------|-----------------|
D |---------------|-----------------|---------------|-----------------|
A |---------------|-----------------|---------------|-----------------|
E |---------------|-----------------|---------------|-----------------|

29 | | | | | | | | | | | | | | | |
E |-3--------3-----|-11--8---4---3-2-|-3---1---1-----|--------------|
B |-----4-------11-|-----------------|-------------4-|--------------|
G |----------------|-----------------|---------------|--------------|
D |----------------|-----------------|---------------|--------------|
A |----------------|-----------------|---------------|--------------|
E |----------------|-----------------|---------------|--------------|

Esta é a página - 44 -
© 2008 by Tablat32 – Cópias somente com autorização

1-52 - Se começarmos
começarmos a orar
Tom:

1 | | | | | | | | | | | | | | | |
E |--5--5-4-5-4-5-3-|-1------------|-----1-1-3---1-|-0-------0----|
B |-----------------|--------------|---------------|--------------|
G |-----------------|--------------|---------------|--------------|
D |-----------------|--------------|---------------|--------------|
A |-----------------|--------------|---------------|--------------|
E |-----------------|--------------|---------------|--------------|

5 | | | | | | | | | | | | | | | | | | | |
E |---------0-0-3-3-|-6------------|-----8-8-8---6-|-5------------|-------------5-|
B |--1--1-1---------|--------------|---------------|---------6----|-----6---8-8---|
G |-----------------|--------------|---------------|--------------|---------------|
D |-----------------|--------------|---------------|--------------|---------------|
A |-----------------|--------------|---------------|--------------|---------------|
E |-----------------|--------------|---------------|--------------|---------------|

10 | | | | | | | | | | | | | | | |
E |-6---10--10-9-10-|-6---6---------|-5-------8-7--6-|-5---5---6---5-|
B |-----------------|---------6---8-|----------------|---------------|
G |-----------------|---------------|----------------|---------------|
D |-----------------|---------------|----------------|---------------|
A |-----------------|---------------|----------------|---------------|
E |-----------------|---------------|----------------|---------------|

14 | | | | | | | | | | | | | | | | | | | |
E |--------------|-----6---5-----|-5------------|-------------5-|-6---10--10-9-10-|
B |-8------------|-------------8-|--------------|-----6---8-8---|-----------------|
G |--------------|---------------|--------------|---------------|-----------------|
D |--------------|---------------|--------------|---------------|-----------------|
A |--------------|---------------|--------------|---------------|-----------------|
E |--------------|---------------|--------------|---------------|-----------------|

19 | | | | | | | | | | | | | | | | | | | |
E |-6---6---------|-5-------8-7--6-|-5---5---6---5-|-3------------|-----6---5---3-|
B |---------6---8-|----------------|---------------|--------------|---------------|
G |---------------|----------------|---------------|--------------|---------------|
D |---------------|----------------|---------------|--------------|---------------|
A |---------------|----------------|---------------|--------------|---------------|
E |---------------|----------------|---------------|--------------|---------------|

24 | | | |
E |--------------|
B |--------------|
G |-10-----------|
D |--------------|
A |--------------|
E |--------------|
1-53 - Segura na mão
mão de Deus
Tom:
1 | | | | | | | | | | | | | | | |
E |----------------|-0---4---4----|-----0---0------|-0------------|
B |-0---0---0----0-|---7----------|-7------------7-|-----0--------|
G |----------------|--------------|----------------|---6----------|
D |----------------|--------------|----------------|--------------|
A |----------------|--------------|----------------|--------------|
E |----------------|--------------|----------------|--------------|

5 | | | | | | | | | | | | | | | | | | | |
E |-----0---0------|-0-2-4--------|-0---2--------|--------------|--------------|
B |-0------------4-|--------------|--------------|--------------|-0-0-0---0----|
G |----------------|--------------|--------------|--------------|--------------|
D |----------------|--------------|--------------|--------------|--------------|
A |----------------|--------------|--------------|--------------|--------------|
E |----------------|--------------|--------------|--------------|--------------|
Esta é a página - 45 -
© Copyright by Sandro Rogério Martins – Todos os direitos reservados.“A rapadura é mole, mas não é doce. Pensou que ia ser moleza!” Nada é fácil nesta vida.

10 | | | | | | | | | | | | | | | | | | | |
E |-0-2-4---4----|-----0---0------|-0------------|-----0---0------|-0---4--------|
B |--------------|-7------------7-|-----0--------|-0------------4-|---7----------|
G |--------------|----------------|---6----------|----------------|--------------|
D |--------------|----------------|--------------|----------------|--------------|
A |--------------|----------------|--------------|----------------|--------------|
E |--------------|----------------|--------------|----------------|--------------|

15 | | | | | | | | | | | | | | | | | | | |
E |--------------|--------------|-4---7---7----9-|-7-4-7--------|-4-------0------|
B |-7---5--------|--------------|----------------|--------------|-----7--------7-|
G |--------------|--------------|----------------|--------------|----------------|
D |--------------|--------------|----------------|--------------|----------------|
A |--------------|--------------|----------------|--------------|----------------|
E |--------------|--------------|----------------|--------------|----------------|

20 | | | | | | | | | | | | | | | | | | | |
E |-0------------|--------------|---------4-4-4-4-|---0----------|-4---7---7----9-|
B |-----0--------|-0---5---5----|-----------------|-7---7--------|----------------|
G |---6----------|--------------|-----------------|--------------|----------------|
D |--------------|--------------|-----------------|--------------|----------------|
A |--------------|--------------|-----------------|--------------|----------------|
E |--------------|--------------|-----------------|--------------|----------------|

25 | | | | | | | | | | | | | | | | | | | |
E |-7-4-7---7----|-4-4-----0----|-0------------|-----0---0------|-0-2-4--------|
B |--------------|-----7--------|-----0--------|-0------------4-|--------------|
G |--------------|--------------|---6----------|----------------|--------------|
D |--------------|--------------|--------------|----------------|--------------|
A |--------------|--------------|--------------|----------------|--------------|
E |--------------|--------------|--------------|----------------|--------------|

30 | | | | | | | |
E |-2---0--------|--------------|
B |--------------|--------------|
G |--------------|--------------|
D |--------------|--------------|
A |--------------|--------------|
E |--------------|--------------|
1-54 - Seja engrandecido
engrandecido
Tom:
1 | | | | | | | | | | | | | | | |
E |-1---1-1-----1-3-|---------1----1-|-0---0-0-----0---|---------0------|
B |-----------------|----------------|---------------6-|--------------5-|
G |-----------------|----------------|-----------------|----------------|
D |-----------------|----------------|-----------------|----------------|
A |-----------------|----------------|-----------------|----------------|
E |-----------------|----------------|-----------------|----------------|

5 | | | | | | | | | | | | | | | |
E |---------------3-|---------------1-|--------------|-1---1-1-----1-3-|
B |-3---3-3-----3---|-----6-------5---|-1------------|-----------------|
G |-----------------|-----------------|--------------|-----------------|
D |-----------------|-----------------|--------------|-----------------|
A |-----------------|-----------------|--------------|-----------------|
E |-----------------|-----------------|--------------|-----------------|

9 | | | | | | | | | | | | | | | |
E |---------1----1-|-0---0-0-----0---|---------0------|---------------3-|
B |----------------|---------------6-|--------------5-|-3---3-3-----3---|
G |----------------|-----------------|----------------|-----------------|
D |----------------|-----------------|----------------|-----------------|
A |----------------|-----------------|----------------|-----------------|
E |----------------|-----------------|----------------|-----------------|

Esta é a página - 46 -
© 2008 by Tablat32 – Cópias somente com autorização

13 | | | | | | | | | | | | | | | | | | | |
E |---------------1-|--------------|-------------1-|---------5---3-|-----1--------|
B |-----6-------5---|-1------------|-1-------------|---------------|--------------|
G |-----------------|--------------|------3--2-----|---------------|--------------|
D |-----------------|--------------|---------------|---------------|--------------|
A |-----------------|--------------|---------------|---------------|--------------|
E |-----------------|--------------|---------------|---------------|--------------|

18 | | | | | | | | | | | | | | | |
E |-------------5-|-1--------1--1-1-|-10-----3-------3-|--------------|
B |---------------|-----------------|-----10-------6---|--------------|
G |---------------|-----------------|------------------|--------------|
D |---------------|-----------------|------------------|--------------|
A |---------------|-----------------|------------------|--------------|
E |---------------|-----------------|------------------|--------------|

22 | | | | | | | | | | | | | | | |
E |-------------1-|---------5-----|--------------|-------------5-|
B |---------------|-------------8-|-----6--------|---------------|
G |-5----3--2-----|---------------|--------------|---------------|
D |---------------|---------------|--------------|---------------|
A |---------------|---------------|--------------|---------------|
E |---------------|---------------|--------------|---------------|

26 | | | | | | | | | | | | | | | |
E |-----------------|-10--5-----------|--------------|-5----6--8-----|
B |-6--------6--6-6-|-------8-----6-8-|--------------|-------------6-|
G |-----------------|-----------------|--------------|---------------|
D |-----------------|-----------------|--------------|---------------|
A |-----------------|-----------------|--------------|---------------|
E |-----------------|-----------------|--------------|---------------|

30 | | | | | | | | | | | | | | | |
E |---------5----6-|-8------------|---------5----5-|----------------|
B |----------------|-----6--------|----------------|-8---6--------6-|
G |----------------|--------------|----------------|----------------|
D |----------------|--------------|----------------|----------------|
A |----------------|--------------|----------------|----------------|
E |----------------|--------------|----------------|----------------|

34 | | | | | | | | | | | | | | | |
E |-6----5----------|--------------|-5----6--8-----|---------5----6-|
B |---------8---6-8-|--------------|-------------6-|----------------|
G |-----------------|--------------|---------------|----------------|
D |-----------------|--------------|---------------|----------------|
A |-----------------|--------------|---------------|----------------|
E |-----------------|--------------|---------------|----------------|

38 | | | | | | | | | | | | | | | |
E |-8------------|---------5----5-|----------------|-6----5-----------|
B |-----6--------|----------------|-8---6--------6-|---------8---6----|
G |--------------|----------------|----------------|---------------12-|
D |--------------|----------------|----------------|------------------|
A |--------------|----------------|----------------|------------------|
E |--------------|----------------|----------------|------------------|

42 | | | |
E |--------------|
B |--------------|
G |--------------|
D |--------------|
A |--------------|
E |--------------|

Esta é a página - 47 -
© Copyright by Sandro Rogério Martins – Todos os direitos reservados.“A rapadura é mole, mas não é doce. Pensou que ia ser moleza!” Nada é fácil nesta vida.

1-55 - Senhor formoso és


Tom:
1 | | | | | | | | | | | | | | | | | | | |
E |-0---0----0----|-0------------|-----------3--5-|--3--3--------|------0-------0-|
B |-------------6-|-----3--------|----3-5---------|--------------|----3------6----|
G |---------------|--------------|--5-------------|--------------|--5-------------|
D |---------------|--------------|----------------|--------------|----------------|
A |---------------|--------------|----------------|--------------|----------------|
E |---------------|--------------|----------------|--------------|----------------|

6 | | | | | | | | | | | |
E |-----5---3---3---0-|--0-------0----|--------------|
B |--5------------6---|-----6-------3-|--------------|
G |-------------------|---------------|--------------|
D |-------------------|---------------|--10-10-------|
A |-------------------|---------------|--------------|
E |-------------------|---------------|--------------|
1-56 - Te agradeço
Tom:
1 | | | | | | | | | | | |
E |---3-----3-----------------3-3-3-6-4-3--------|
B |-----------6-4-6-----4-----------------6------|
G |-3-----------------------3--------------------|
D |----------------------------------------------|
A |----------------------------------------------|
E |----------------------------------------------|

2 | | | | | | | | | | | |
E |---6-6-6-6-8-6-4-4-6-4-----3-3-3-6-4-3-------4-3-|
B |---------------------------------------6---------|
G |-3-----------------------3----------------3------|
D |-------------------------------------------------|
A |-------------------------------------------------|
E |-------------------------------------------------|

3 | | | | | | | | | | | |
E |-----------------------------------------------|
B |-6-6-----4-----------------6----------6--------|
G |----------------------5--8-------8-----------8-|
D |-----------------------------------------------|
A |-----------------------------------------------|
E |-----------------------------------------------|

4 | | | | | | | | | | | |
E |--6--------------------------------------------|
B |---------------------------6----------6--------|
G |----------------------5--8-------8-----------8-|
D |-----------------------------------------------|
A |-----------------------------------------------|
E |-----------------------------------------------|

5 | | | | | | | | | | | |
E |--6------------------------6-6-6-6-6-6-6-6-8-6-|
B |----------------------8--9---------------------|
G |-----------------------------------------------|
D |-----------------------------------------------|
A |-----------------------------------------------|
E |-----------------------------------------------|

6 | | | | | | | | | | | |
E |--8--8-8-8-8--8--10-11-11-10-8------------------11-11-10-|
B |-------------------------------11-----8------------------|
G |------------------------------------------10-8-----------|
D |---------------------------------------------------------|
A |---------------------------------------------------------|
E |---------------------------------------------------------|

Esta é a página - 48 -
© 2008 by Tablat32 – Cópias somente com autorização

7 | | | | | | | | | | | |
E |-8------------------11-11-10-8------------1----------|
B |---11-----8--------------------11-----8-----4------1-|
G |--------------10-8-----------------------------------|
D |-----------------------------------------------------|
A |-----------------------------------------------------|
E |-----------------------------------------------------|

8 | | | | | | | | | | | |
E |---1------------------------------------------|
B |-4------------4-------------------------------|
G |----------------------------------------------|
D |----------------------------------------------|
A |----------------------------------------------|
E |----------------------------------------------|

1-57 - Tudo que Jesus conquistou na cruz


Tom:

1 | | | | | | | | | | | |
E |-0-0-0-0-3-------3------0-|---0----------0----|-0-0---3---0-0------0-1-|
B |-----------6-5-5---3--3---|-6---3------3----3-|-----5---6-----6-3------|
G |--------------------------|--------5----------|------------------------|
D |--------------------------|-------------------|------------------------|
A |--------------------------|-------------------|------------------------|
E |--------------------------|-------------------|------------------------|

4 | | | | | | | | | | | |
E |--0------------0----|-5-5-5-5-8-7-5------|---------5------------|
B |----3--1---1-3----3-|---------------8----|-6-6-6-6---8-6------5-|
G |---------2----------|--------------------|---------------7------|
D |--------------------|--------------------|----------------------|
A |--------------------|--------------------|----------------------|
E |--------------------|--------------------|----------------------|

7 | | | | | | | | | | | |
E |-5-5-5-5-8-7-5--7-3--0-|---0----3-5--3---3--|----------------|
B |-----------------------|-6---6---------6----|--------------5-|
G |-----------------------|--------------------|----------------|
D |-----------------------|--------------------|----------------|
A |-----------------------|--------------------|----------------|
E |-----------------------|--------------------|----------------|

10 | | | | | | | | | | | |
E |-3-3-3-3----3------0-|-----0----3-5--3---3-|-3-3-3-3----3------0-|
B |----------5----------|-6-6---6-------------|----------5----------|
G |---------------------|---------------------|---------------------|
D |---------------------|---------------------|---------------------|
A |---------------------|---------------------|---------------------|
E |---------------------|---------------------|---------------------|

13 | | | | | | | |
E |-----0----3-5---------|--------------|
B |-6-6---6--------------|--------------|
G |---------------12--12-|--------------|
D |----------------------|--------------|
A |----------------------|--------------|
E |----------------------|--------------|
1-58 - Vamos adorar a Deus
Tom:

1 | | | | | | | | | | | | | | | |
E |-0-----0------5-|--------------|-5-8-8-5-8----10-|------5-------|
B |---8-8---8------|--------------|-----------------|-6-------8----|
G |----------------|-5------------|-----------------|--------------|
D |----------------|--------------|-----------------|--------------|
A |----------------|--------------|-----------------|--------------|
E |----------------|--------------|-----------------|--------------|

Esta é a página - 49 -
© Copyright by Sandro Rogério Martins – Todos os direitos reservados.“A rapadura é mole, mas não é doce. Pensou que ia ser moleza!” Nada é fácil nesta vida.

5 | | | | | | | | | | | | | | | |
E |-0-----0------5-|-0------------|-0--------------|-----------------|
B |---8-8---8------|---3----------|---3-----1----3-|-1-----------1-3-|
G |----------------|-----5--------|-----5-2--------|-----------------|
D |----------------|--------------|----------------|-----------------|
A |----------------|--------------|----------------|-----------------|
E |----------------|--------------|----------------|-----------------|

9 | | | | | | | | | | | | | | | |
E |-0-----------0---|-0---0-------0-3-|-1---1-------0---|-1---1--------|
B |---------------3-|-----------------|---------------3-|--------------|
G |-----------------|-----------------|-----------------|--------------|
D |-----------------|-----------------|-----------------|--------------|
A |-----------------|-----------------|-----------------|--------------|
E |-----------------|-----------------|-----------------|--------------|

13 | | | | | | | | | | | | | | | |
E |-1---1-------3-5-|-3-----------3-3-|-4---4-------4-4-|-5---5-------5-5-|
B |-----------------|-----------------|-----------------|-----------------|
G |-----------------|-----------------|-----------------|-----------------|
D |-----------------|-----------------|-----------------|-----------------|
A |-----------------|-----------------|-----------------|-----------------|
E |-----------------|-----------------|-----------------|-----------------|

17 | | | | | | | | | | | | | | | |
E |-5---5-------5-8-|-7-7-7-------5---|-7-7-7-------8-10-|-8------------|
B |-----------------|---------------8-|------------------|--------------|
G |-----------------|-----------------|------------------|--------------|
D |-----------------|-----------------|------------------|--------------|
A |-----------------|-----------------|------------------|--------------|
E |-----------------|-----------------|------------------|--------------|

21 | | | | | | | | | | | | | | | |
E |------------------|-8-8-8-8-7-7--5-|-3-3-3-5------0-|-1-1-1-5-3------|
B |------------------|----------------|---------1------|--------------6-|
G |--------------5-5-|----------------|----------------|----------------|
D |------------------|----------------|----------------|----------------|
A |------------------|----------------|----------------|----------------|
E |------------------|----------------|----------------|----------------|

25 | | | | | | | | | | | | | | | |
E |-0-0-0---3--------|-8-8-8-8-7------5-|-----5------------|-12------------------|
B |-------6----------|------------------|-8-8---12-13------|----15-13----13---15-|
G |----------------5-|------------------|------------------|----------14---------|
D |------------------|------------------|------------------|---------------------|
A |------------------|------------------|------------------|---------------------|
E |------------------|------------------|------------------|---------------------|

29 | | | |
E |--------------|
B |-13-----------|
G |--------------|
D |--------------|
A |--------------|
E |--------------|
1-59 - Vem com Josué
Tom:

1 | | | | | | | | | | | | | | | |
E |-------0---0---3-|-5-5--5-------|-3-3--3-------|-5-5--5---3------|
B |-3-2-3---6---6---|--------------|--------------|-------------6-5-|
G |-----------------|--------------|--------------|-----------------|
D |-----------------|--------------|--------------|-----------------|
A |-----------------|--------------|--------------|-----------------|
E |-----------------|--------------|--------------|-----------------|

Esta é a página - 50 -
© 2008 by Tablat32 – Cópias somente com autorização

5 | | | | | | | | | | | | | | | |
E |-------0---0-----|-5-5--5----------|-5-------------|--------------|
B |-3-2-3---6---6-8-|----------5--6-8-|-----8---6---5-|--------------|
G |-----------------|-----------------|---------------|-7------------|
D |-----------------|-----------------|---------------|--------------|
A |-----------------|-----------------|---------------|--------------|
E |-----------------|-----------------|---------------|--------------|

9 | | | | | | | | | | | | | | | | | | | |
E |-10--5---5---5-|-5----5-------|-10--5---5---5-|-5----5-------|-10--5---5---5-|
B |---------------|---8----------|---------------|---8----------|---------------|
G |---------------|--------------|---------------|--------------|---------------|
D |---------------|--------------|---------------|--------------|---------------|
A |---------------|--------------|---------------|--------------|---------------|
E |---------------|--------------|---------------|--------------|---------------|

14 | | | | | | | | | | | | | | | |
E |-5----5----------|-5-----------0-|--------------|-------0---0---3-|
B |---8------5--6-8-|-----8---6-----|-3------------|-3-2-3---6---6---|
G |-----------------|---------------|--------------|-----------------|
D |-----------------|---------------|--------------|-----------------|
A |-----------------|---------------|--------------|-----------------|
E |-----------------|---------------|--------------|-----------------|

18 | | | | | | | | | | | | | | | |
E |-5-5--5-------|-3-3--3-------|-5-5--5---3------|-------0---0-----|
B |--------------|--------------|-------------6-5-|-3-2-3---6---6-8-|
G |--------------|--------------|-----------------|-----------------|
D |--------------|--------------|-----------------|-----------------|
A |--------------|--------------|-----------------|-----------------|
E |--------------|--------------|-----------------|-----------------|

22 | | | | | | | | | | | |
E |-5-5--5----------|-5-----------0-|--------------|
B |----------5--6-8-|-----8---6-----|--------------|
G |-----------------|---------------|--------------|
D |-----------------|---------------|-12-----------|
A |-----------------|---------------|--------------|
E |-----------------|---------------|--------------|

1-60 - Ventos de avivamento


Tom:

1 | | | | | | | | | | | |
E |---0-0-0-0-----0-0-0-0-2-4-|--4--5--------|---2-2-2-2-2-4-5-0--0-----|
B |-2---------3-2-------------|--------------|-3--------------------3-2-|
G |---------------------------|--------------|--------------------------|
D |---------------------------|--------------|--------------------------|
A |---------------------------|--------------|--------------------------|
E |---------------------------|--------------|--------------------------|

4 | | | | | | | | | | | |
E |--------------|---2-2-2-2-2-2-0-0-0-0---0-|-2------------|
B |--0-----------|-2---------------------2---|--------------|
G |--------------|---------------------------|--------------|
D |--------------|---------------------------|--------------|
A |--------------|---------------------------|--------------|
E |--------------|---------------------------|--------------|

7 | | | | | | | | | |
E |-------------------------0-2-|-2-0-------0-0-0-0-----|------0-|
B |-0-3-3-3-3-3-2-0-3-3-3-3-----|---------2---------3-2-|--------|
G |-----------------------------|-----------------------|--------|
D |-----------------------------|-----------------------|--------|
A |-----------------------------|-----------------------|--------|
E |-----------------------------|-----------------------|--------|

Esta é a página - 51 -
© Copyright by Sandro Rogério Martins – Todos os direitos reservados.“A rapadura é mole, mas não é doce. Pensou que ia ser moleza!” Nada é fácil nesta vida.

10 | | | | | | | | | | | | | |
E |--0-0-0---4-4-5--------|---2-2-2-2-----2-2-2-2-4-2-|--4-----------5-7-|------|
B |--------7--------------|-3---------5-3-------------|----------5-------|------|
G |-----------------------|---------------------------|------------------|------|
D |-----------------------|---------------------------|------------------|------|
A |-----------------------|---------------------------|------------------|------|
E |-----------------------|---------------------------|------------------|------|

14 | | | | | | | | | | | | | |
E |--10-9--9-|--9-9-9-9-7-5-7-----|---7-7-7-7-5-4-5-----|---5-5-5-5-7-9-7-----|
B |----------|------------------5-|-5-------------------|-7-----------------5-|
G |----------|--------------------|-------------------6-|---------------------|
D |----------|--------------------|---------------------|---------------------|
A |----------|--------------------|---------------------|---------------------|
E |----------|--------------------|---------------------|---------------------|

18 | | | | | | | | | | | | | |
E |------5-7--10-9-9-|------|----9-9-9-9-7-5-7-----|---7-7-7-7-5-4-5-----|
B |--5---------------|------|--------------------5-|-5-----------------2-|
G |------------------|------|--9-------------------|---------------------|
D |------------------|------|----------------------|---------------------|
A |------------------|------|----------------------|---------------------|
E |------------------|------|----------------------|---------------------|

22 | | | | | | | |
E |-2-5-5-5-5-7-9-7-5-5-5-4-5-|--5-----------|
B |---------------------------|--------------|
G |---------------------------|--------------|
D |---------------------------|--------------|
A |---------------------------|--------------|
E |---------------------------|--------------|
2-01 SH001 O servo do Senhor (1)
Tom:

1 | | | | | | | | | | | | | | | | | | | |
E |-----3---3---3-|-3---7---5---3-|-----5---5---8-|-7------------|-----7---7---7-|
B |-3-------------|---------------|-3-------------|-----10-------|---------------|
G |---------------|---------------|---------------|--------------|-7-------------|
D |---------------|---------------|---------------|--------------|---------------|
A |---------------|---------------|---------------|--------------|---------------|
E |---------------|---------------|---------------|--------------|---------------|

6 | | | | | | | | | | | |
E |-7---8---10--12-|-8------------7-|--------------|
B |----------------|---10-8---8-----|-10-----------|
G |----------------|----------------|-----12-------|
D |----------------|----------------|--------------|
A |----------------|----------------|--------------|
E |----------------|----------------|--------------|
2-02 SH007 O fiel pastor (1)
Tom:
1 | | | | | | | | | | | | | | | | | | | |
E |-0---0-0-------|-9-----------9-|-7---0---------|---------------|-----7---9---7-|
B |---------9---9-|---------------|---------10--9-|-7-----------7-|-9-------------|
G |---------------|---------------|---------------|---------------|---------------|
D |---------------|---------------|---------------|---------------|---------------|
A |---------------|---------------|---------------|---------------|---------------|
E |---------------|---------------|---------------|---------------|---------------|

6 | | | | | | | | | | | | | | | |
E |-6-------7---12-|-11--12--9---9-|-7-----------7-|-7-----------0-|
B |-----9-7--------|---------------|---------------|-----9---7-----|
G |----------------|---------------|---------------|---------------|
D |----------------|---------------|---------------|---------------|
A |----------------|---------------|---------------|---------------|
E |----------------|---------------|---------------|---------------|

Esta é a página - 52 -
© 2008 by Tablat32 – Cópias somente com autorização

10 | | | | | | | | | | | | | | | |
E |-9-----------9-|-9---6---------|-11----------11-|-12---11-9---7-|
B |---------------|---------9---7-|----------------|---------------|
G |---------------|---------------|----------------|---------------|
D |---------------|---------------|----------------|---------------|
A |---------------|---------------|----------------|---------------|
E |---------------|---------------|----------------|---------------|

14 | | | | | | | | | | | |
E |-5-------4---7-|-5---4---2---2-|-0------------|
B |-----7---------|---------------|--------------|
G |---------------|---------------|--------------|
D |---------------|---------------|--------------|
A |---------------|---------------|--------------|
E |---------------|---------------|--------------|

2-03 SH024 O socorro do crente


Tom:
1 | | | | | | | | | | | | | | | | | |
E |------|-7----8-|-10-12-10-8-|-7---8-|-7-----|-------|------|-----7-|-8---7-|
B |-8----|--------|------------|-------|-----8-|-10--7-|-8----|-------|-------|
G |------|--------|------------|-------|-------|-------|------|-------|-------|
D |------|--------|------------|-------|-------|-------|------|-------|-------|
A |------|--------|------------|-------|-------|-------|------|-------|-------|
E |------|--------|------------|-------|-------|-------|------|-------|-------|

10 | | | | | | | | | | | | | | | | | | | |
E |-5-----|-5----|-----5-|-7-5-7-8-|-10--12-|-10---|-9----|-10---|------|--10--|
B |-----8-|------|-------|---------|--------|------|------|------|------|------|
G |-------|------|-------|---------|--------|------|------|------|------|------|
D |-------|------|-------|---------|--------|------|------|------|------|------|
A |-------|------|-------|---------|--------|------|------|------|------|------|
E |-------|------|-------|---------|--------|------|------|------|------|------|

20 | | | | | | | | | | | | | | | | | |
E |--10--10-|--7---|-------7-|--8---7-|--5-----|--5---|------|--------|------3-|
B |---------|------|-10-8----|--------|------8-|------|------|--------|--0-----|
G |---------|------|---------|--------|--------|------|------|--0-----|------0-|
D |---------|------|---------|--------|--------|------|------|------7-|--------|
A |---------|------|---------|--------|--------|------|------|--------|--------|
E |---------|------|---------|--------|--------|------|------|--------|--------|

29 | | | | | | | | | | | | | | | |
E |--8---8-|--8---8-|--7---|------7-|--5---5-|--5--7-8-|-----10--|------10-|
B |--------|--------|------|--------|--------|---------|--10-----|---------|
G |--------|--------|------|--------|--------|---------|---------|---------|
D |--------|--------|------|--------|--------|---------|---------|---------|
A |--------|--------|------|--------|--------|---------|---------|---------|
E |--------|--------|------|--------|--------|---------|---------|---------|

37 | | | | | | | | | | | | | |
E |--12--10-|--8---7-|--5---|------5-|------|------|------|
B |---------|--------|------|--------|------|------|------|
G |---------|--------|------|--------|--12--|------|------|
D |---------|--------|------|--------|------|------|------|
A |---------|--------|------|--------|------|------|------|
E |---------|--------|------|--------|------|------|------|
2-04 SH029 Invocação
Tom:

1 | | | | | | | | | | | | | | | |
E |-2-------2----0-|-------------0-|-2-----------10-|---------2----|
B |----------------|-3-------------|-----10--12-----|-10-----------|
G |----------------|---------------|----------------|--------------|
D |----------------|---------------|----------------|--------------|
A |----------------|---------------|----------------|--------------|
E |----------------|---------------|----------------|--------------|
Esta é a página - 53 -
© Copyright by Sandro Rogério Martins – Todos os direitos reservados.“A rapadura é mole, mas não é doce. Pensou que ia ser moleza!” Nada é fácil nesta vida.

5 | | | | | | | | | | | | | | | |
E |-2-------2----0-|-------------0-|-2---7---5-----|-0------------|
B |----------------|-3-------------|-------------7-|--------------|
G |----------------|---------------|---------------|--------------|
D |----------------|---------------|---------------|--------------|
A |----------------|---------------|---------------|--------------|
E |----------------|---------------|---------------|--------------|

9 | | | | | | | | | | | | | | | |
E |--------------0-|-------------0-|---------7---10-|--------------|
B |-7-------7------|---------------|-7---10---------|-10------7----|
G |----------------|-7-------------|----------------|--------------|
D |----------------|---------------|----------------|--------------|
A |----------------|---------------|----------------|--------------|
E |----------------|---------------|----------------|--------------|

13 | | | | | | | | | | | | | | | | | | | |
E |---------7------|-------------0-|---------0----|--------------|---------7---9-|
B |-10----------10-|-10--7---------|-7------------|--------------|-10------------|
G |----------------|---------7-----|--------------|-7------------|---------------|
D |----------------|---------------|--------------|--------------|---------------|
A |----------------|---------------|--------------|--------------|---------------|
E |----------------|---------------|--------------|--------------|---------------|

18 | | | | | | | | | | | | | | | | | | | |
E |-10-------------|-------------9-|-10-----------|-10------10--9-|-10------------|
B |-------------10-|-12--10--12----|---------10---|---------------|-----10--8---7-|
G |----------------|---------------|--------------|---------------|---------------|
D |----------------|---------------|--------------|---------------|---------------|
A |----------------|---------------|--------------|---------------|---------------|
E |----------------|---------------|--------------|---------------|---------------|

23 | | | | | | | | | | | | | | | | | | | |
E |-7-------0----|-0------------|-------------0-|-------------0-|---------7---10-|
B |--------------|--------------|-7-------7-----|---------------|-7---10---------|
G |--------------|--------------|---------------|-7-------------|----------------|
D |--------------|--------------|---------------|---------------|----------------|
A |--------------|--------------|---------------|---------------|----------------|
E |--------------|--------------|---------------|---------------|----------------|

28 | | | | | | | | | | | | | | | | | | | |
E |--------------|---------7------|---------7---10-|-10------9----|-10-----------|
B |-10------7----|-10----------10-|-7---10---------|--------------|--------------|
G |--------------|----------------|----------------|--------------|--------------|
D |--------------|----------------|----------------|--------------|--------------|
A |--------------|----------------|----------------|--------------|--------------|
E |--------------|----------------|----------------|--------------|--------------|
2-05 SH051 Deus cuidará de ti
Tom:

1 | | | | | | | | | | | | | | | | | |
E |---------6-8-10--8-6--|---5------3-----------|---------6-8-10--8-6--|
B |-3-4-5-6--------------|-6---8-4-----6----3---|-3-4-5-6--------------|
G |----------------------|----------------------|----------------------|
D |----------------------|----------------------|----------------------|
A |----------------------|----------------------|----------------------|
E |----------------------|----------------------|----------------------|

4 | | | | | | | | | | | | | | | | | |
E |---5------8--6--------|-6----5---3--3---1-1--|-1-5-3---------3--------|
B |-6---8-6--------------|----------------------|-------4--4--4---6------|
G |----------------------|----------------------|-------------------7--7-|
D |----------------------|----------------------|------------------------|
A |----------------------|----------------------|------------------------|
E |----------------------|----------------------|------------------------|
Esta é a página - 54 -
© 2008 by Tablat32 – Cópias somente com autorização

7 | | | | | | | | | | | |
E |------6---6--8-6-8-10--|-8-6-----6-5----------|
B |-6---------------------|-----8-6-----11-------|
G |-----------------------|----------------------|
D |-----------------------|----------------------|
A |-----------------------|----------------------|
E |-----------------------|----------------------|

2-06 SH064 Deus dos antigos


Tom:

1 | | | | | | | | | | | | | | | |
E |-6-----------6-6-6-|-6---6---6---6-|----------------|-3-----------4-|
B |-8-----------8-8-8-|-8---8---8---8-|--------------6-|---------------|
G |-8-----------8-8-8-|-8---8---8---8-|-8-------8------|---------------|
D |-------------------|---------------|----------------|---------------|
A |-------------------|---------------|----------------|---------------|
E |-------------------|---------------|----------------|---------------|

5 | | | | | | | | | | | | | | | |
E |-3-------------|-----6-6-6-6---6-|----------------|-6-----------8-|
B |-----4---4-----|-----8-8-8-8---8-|-8-------8----8-|---------------|
G |-------------7-|-8---8-8-8-8---8-|----------------|---------------|
D |---------------|-----------------|----------------|---------------|
A |---------------|-----------------|----------------|---------------|
E |---------------|-----------------|----------------|---------------|

9 | | | | | | | | | | | | | | | |
E |-10--6---6---5-|-6---6-6-6-6---6-|-6-------6----6-|-6-----------6-|
B |---------------|-----------------|----------------|-7-----------5-|
G |---------------|-----------------|----------------|-6-----------6-|
D |---------------|-----8-8-8-8---8-|----------------|-8-------------|
A |---------------|-----------------|----------------|---------------|
E |---------------|-----------------|----------------|---------------|

13 | | | | | | | | | | | | | | | |
E |-9---6---6---5-|-6---6-6-6-6---6-|-11------10---8-|-6-----------6-|
B |---------------|-----------------|----------------|---------------|
G |---------------|-----------------|----------------|---------------|
D |---------------|-----8-8-8-8---8-|----------------|---------------|
A |---------------|-----------------|----------------|---------------|
E |---------------|-----------------|----------------|---------------|

17 | | | | | | | |
E |-4---3---------|--------------|
B |---------6---6-|--------------|
G |---------------|--------------|
D |---------------|-13-----------|
A |---------------|--------------|
E |---------------|--------------|
2-07 SH065 Grandioso és Tu
Tom:

1 | | | | | | | | | | | | | | | |
E |-1-1-1-------1-1-|-1-3-3----3---|-3-3-3-1-------1-|-1------------|
B |-------3---------|-------4------|-------------3---|---4-4-3------|
G |-----------------|--------------|-----------------|--------------|
D |-----------------|--------------|-----------------|--------------|
A |-----------------|--------------|-----------------|--------------|
E |-----------------|--------------|-----------------|--------------|

5 | | | | | | | | | | | | | | | |
E |-1-1-1-------1-1-|-1-3-3----3---|-3-3-3-1-------1-|-1------------|
B |-------3---------|-------4------|-------------3---|--------------|
G |-----------------|--------------|-----------------|---8-8-7------|
D |-----------------|--------------|-----------------|--------------|
A |-----------------|--------------|-----------------|--------------|
E |-----------------|--------------|-----------------|--------------|

Esta é a página - 55 -
© Copyright by Sandro Rogério Martins – Todos os direitos reservados.“A rapadura é mole, mas não é doce. Pensou que ia ser moleza!” Nada é fácil nesta vida.

9 | | | | | | | | | | | | | | | |
E |-----6-10-----8-6-|-5-6----------|-6-6-5--------|---3----------|
B |-6-6--------------|-----8-6------|--------------|-4---6--------|
G |------------------|--------------|-------5------|-------7------|
D |------------------|--------------|--------------|--------------|
A |------------------|--------------|--------------|--------------|
E |------------------|--------------|--------------|--------------|

13 | | | | | | | | | | | | | | | |
E |-----6-10-----8-6-|-5-6----------|-6-5-6-8------|-10-11------------|
B |-6-6--------------|-----8-6------|--------------|-------10-11------|
G |------------------|--------------|--------------|------------------|
D |------------------|--------------|--------------|------------------|
A |------------------|--------------|--------------|------------------|
E |------------------|--------------|--------------|------------------|

17 | | | |
E |--------------|
B |--------------|
G |--------------|
D |--------------|
A |--------------|
E |--------------|
2-08 SH069
SH069 Vos criaturas de Deus pai
Tom:

1 | | | | | | | | | | | | | | | | | |
E |---------3---|-3-4-6----|---------3---|-3-4------|-11-10--------|-11-10--------|
B |-4---4-6---4-|----------|-4---4-6---4-|-----11---|-------13--11-|-------13--11-|
G |-------------|----------|-------------|----------|--------------|--------------|
D |-------------|----------|-------------|----------|--------------|--------------|
A |-------------|----------|-------------|----------|--------------|--------------|
E |-------------|----------|-------------|----------|--------------|--------------|

7 | | | | | | | | | | | | | | | | | |
E |-11--11-------4-|-3-4------|-11--11-------4-|-3-4-6----|-4-3-------|-4-3-------|
B |--------11-11---|-----11---|--------11-11---|----------|-----6---4-|-----6---4-|
G |----------------|----------|----------------|----------|-----------|-----------|
D |----------------|----------|----------------|----------|-----------|-----------|
A |----------------|----------|----------------|----------|-----------|-----------|
E |----------------|----------|----------------|----------|-----------|-----------|

13 | | | | | | | | |
E |-11-10--------|-11-10--------|-4-3--------|
B |-------13--11-|-------13--11-|-----6------|
G |--------------|--------------|------------|
D |--------------|--------------|---------13-|
A |--------------|--------------|------------|
E |--------------|--------------|------------|
2-09 SH070 Tuas obras te coroam
Tom:

1 | | | | | | | | | | | | | | | |
E |-7---7---8---10-|-10--8---7---5-|---------5---7-|-7----5--5----|
B |----------------|---------------|-8---8---------|--------------|
G |----------------|---------------|---------------|--------------|
D |----------------|---------------|---------------|--------------|
A |----------------|---------------|---------------|--------------|
E |----------------|---------------|---------------|--------------|

5 | | | | | | | | | | | | | | | | | | | |
E |-7---7---8---10-|-10--8---7---5-|---------5---7-|-5------------|-5---5---7-----|
B |----------------|---------------|-8---8---------|------8--8----|-------------8-|
G |----------------|---------------|---------------|--------------|---------------|
D |----------------|---------------|---------------|--------------|---------------|
A |----------------|---------------|---------------|--------------|---------------|
E |----------------|---------------|---------------|--------------|---------------|

Esta é a página - 56 -
© 2008 by Tablat32 – Cópias somente com autorização

10 | | | | | | | | | | | | | | | |
E |-----7-8-7-----|-----7-8-7------|--------------|-7---7---8---10-|
B |-10----------8-|-10----------10-|-8---10-------|----------------|
G |---------------|----------------|---------7----|----------------|
D |---------------|----------------|--------------|----------------|
A |---------------|----------------|--------------|----------------|
E |---------------|----------------|--------------|----------------|

14 | | | | | | | | | | | |
E |-10--8---7------|-------------7-|--------------|
B |-------------10-|-8---8---10----|-10-----------|
G |----------------|---------------|------12-12---|
D |----------------|---------------|--------------|
A |----------------|---------------|--------------|
E |----------------|---------------|--------------|

2-10 SH073(1) Vinde fiéis


Tom:

1 | | | | | | | | | | | | | | | | | | | |
E |-4---4---------|-4---6---------|-----8---6---8-|-9---8-------6-|-4---4-------3-|
B |-------------4-|-------------4-|-4-------------|---------------|---------------|
G |---------------|---------------|---------------|---------------|---------------|
D |---------------|---------------|---------------|---------------|---------------|
A |---------------|---------------|---------------|---------------|---------------|
E |---------------|---------------|---------------|---------------|---------------|

6 | | | | | | | | | | | | | | | | | | | |
E |-----3---4---6-|-8--------------|--------------|-----11------9-|-8---9-------8-|
B |-6-------------|-----8----------|--------------|---------------|---------------|
G |---------------|-------------10-|--8--8--------|-8-------------|---------------|
D |---------------|----------------|--------------|---------------|---------------|
A |---------------|----------------|--------------|---------------|---------------|
E |---------------|----------------|--------------|---------------|---------------|

11 | | | | | | | | | | | | | | | | | | | |
E |-8-------8---4-|-6---3---------|-4---4---3---4-|-6---4---------|-8---8-------8-|
B |-----11--------|----------6--4-|---------------|-------------4-|---------11----|
G |---------------|---------------|---------------|---------------|---------------|
D |---------------|---------------|---------------|---------------|---------------|
A |---------------|---------------|---------------|---------------|---------------|
E |---------------|---------------|---------------|---------------|---------------|

16 | | | | | | | | | | | | | | | |
E |-9---8----------|-8---9---8------|---------------|-9---8----------|
B |-------------11-|-------------11-|-9---8-------9-|-------------11-|
G |----------------|----------------|---------------|----------------|
D |----------------|----------------|---------------|----------------|
A |----------------|----------------|---------------|----------------|
E |----------------|----------------|---------------|----------------|

20 | | | |
E |--------------|
B |--------------|
G |--13-13-------|
D |--------------|
A |--------------|
E |--------------|
2-11 SH074 Noite de paz
Tom:

1 | | | | | | | | | | | | | | | | | |
E |---5---0-------5---0--|-10--10-7--7--8---8----|-5---5-8--7-5---5------|
B |-8---8-------8---8----|--------------------8--|--------------8---8-5--|
G |----------------------|-----------------------|-----------------------|
D |----------------------|-----------------------|-----------------------|
A |----------------------|-----------------------|-----------------------|
E |----------------------|-----------------------|-----------------------|

Esta é a página - 57 -
© Copyright by Sandro Rogério Martins – Todos os direitos reservados.“A rapadura é mole, mas não é doce. Pensou que ia ser moleza!” Nada é fácil nesta vida.

4 | | | | | | | | | | | | | | | | | |
E |-5---5-8--7-5---5---0--|-10--10-13--10-7-8----12--|-8---0-------------------|
B |--------------8---8----|--------------------------|---8---8-----------------|
G |-----------------------|--------------------------|----------10-------------|
D |-----------------------|--------------------------|-------------12-10-------|
A |-----------------------|--------------------------|-------------------------|
E |-----------------------|--------------------------|-------------------------|
2-12 SH075 Nasce Jesus
Tom:

1 | | | | | | | | | | | | | | | | | |
E |-3-0---3-----3-----3--|-8-7-5-3---0-3----1---|-1---0-1-----1---0-1--|
B |-----6---------5-6----|---------6------------|---3-----------3------|
G |----------------------|----------------------|----------------------|
D |----------------------|----------------------|----------------------|
A |----------------------|----------------------|----------------------|
E |----------------------|----------------------|----------------------|

4 | | | | | | | | | | | | | | | | | |
E |-1---0-1-5-3------3---|-3-----3-----3-----3--|-3-2-3-8-7-8-10-------|
B |---3---------5--------|---5-6---------5-6----|------------------10--|
G |----------------------|----------------------|----------------------|
D |----------------------|----------------------|----------------------|
A |----------------------|----------------------|----------------------|
E |----------------------|----------------------|----------------------|

7 | | | | | | | | | | | | | | | | | |
E |-10--8-7--5----0---8--|-7---3-5--2--3--------|-3--------3--7----3---|
B |-------------8---8----|----------------------|------3---------------|
G |----------------------|----------------------|----------------------|
D |----------------------|----------------------|----------------------|
A |----------------------|----------------------|----------------------|
E |----------------------|----------------------|----------------------|

10 | | | | | | | | | | | | | | | | | |
E |-5-3-5-7--5--3--------|-7--------7--10---7---|-5---5-7--5--3--------|
B |------------------3---|------8---------------|---8------------------|
G |----------------------|----------------------|----------------------|
D |----------------------|----------------------|----------------------|
A |----------------------|----------------------|----------------------|
E |----------------------|----------------------|----------------------|

13 | | | | | | | | | | | | | | | | | |
E |-3-0---3-----3-----3--|-3-2-3-8-7-8-10-------|-10--8-7---------8-12--12-|
B |-----6---------5-6----|------------------10--|----------10-8------------|
G |----------------------|----------------------|--------------------------|
D |----------------------|----------------------|--------------------------|
A |----------------------|----------------------|--------------------------|
E |----------------------|----------------------|--------------------------|

16 | | | | | |
E |-10--10-------------------|
B |--------12-10-12-13-------|
G |--------------------------|
D |--------------------------|
A |--------------------------|
E |--------------------------|
2-13 SH076 Eis dos anjos a harmonia (1)
Tom:

1 | | | | | | | | | | | | | | | |
E |-----3---3----2-|-3---7---7---5-|-10--10--10---8-|-7-------7----|
B |-3--------------|---------------|----------------|-----10-------|
G |----------------|---------------|----------------|--------------|
D |----------------|---------------|----------------|--------------|
A |----------------|---------------|----------------|--------------|
E |----------------|---------------|----------------|--------------|

Esta é a página - 58 -
© 2008 by Tablat32 – Cópias somente com autorização

5 | | | | | | | | | | | | | | | |
E |----------------|-----7---7------|-10--------------|-----0--------|
B |-----8---8----7-|-8-----------10-|-----10--10------|--------------|
G |-7--------------|----------------|--------------11-|-11-----------|
D |----------------|----------------|-----------------|---------12---|
A |----------------|----------------|-----------------|--------------|
E |----------------|----------------|-----------------|--------------|

9 | | | | | | | | | | | | | | | |
E |-10--10--10----|-8---7---7------|-10--10--10----|-8---7---7------|
B |-------------8-|-------------10-|-------------8-|-------------10-|
G |---------------|----------------|---------------|----------------|
D |---------------|----------------|---------------|----------------|
A |---------------|----------------|---------------|----------------|
E |---------------|----------------|---------------|----------------|

13 | | | | | | | | | | | | | | | |
E |-12--12--12--10-|-8---7---8----|-----7-8-10-----|---------7----|
B |----------------|-----9---10---|-10-----------8-|-8---10-------|
G |----------------|--------------|----------------|--------------|
D |----------------|--------------|----------------|--------------|
A |----------------|--------------|----------------|--------------|
E |----------------|--------------|----------------|--------------|

17 | | | | | | | | | | | | | | | |
E |-12---12-12--10-|-8---7---8----|-----7-8-10-----|--------------|
B |----------------|--------------|-10-----------8-|-8------------|
G |----------------|--------------|----------------|-----14--12---|
D |----------------|--------------|----------------|--------------|
A |----------------|--------------|----------------|--------------|
E |----------------|--------------|----------------|--------------|
2-14 SH079 Glória
Tom:
1 | | | | | | | | | | | | | | | |
E |-7---7---7---7-10-|-10---8--7-----|-7---7----7---7-10-|-10---8--7----|
B |------------------|-------------8-|-------10----------|--------------|
G |------------------|---------------|-------------------|--------------|
D |------------------|---------------|-------------------|--------------|
A |------------------|---------------|-------------------|--------------|
E |------------------|---------------|-------------------|--------------|

5 | | | | | | | | | | | | | | | |
E |-7---7---7---7-10-|-10---8--7-----|-7---7----7---7-10-|-10---8--7----|
B |------------------|-------------8-|-------10----------|--------------|
G |------------------|---------------|-------------------|--------------|
D |------------------|---------------|-------------------|--------------|
A |------------------|---------------|-------------------|--------------|
E |------------------|---------------|-------------------|--------------|

9 | | | | | | | | | | | | | | | |
E |-10------12-10-8-7-|-8-------10-8-7----|-7-------8-7-5-3-|-5------------|
B |-------------------|----------------10-|-----------------|---------3----|
G |-------------------|-------------------|-----------------|--------------|
D |-------------------|-------------------|-----------------|--------------|
A |-------------------|-------------------|-----------------|--------------|
E |-------------------|-------------------|-----------------|--------------|

13 | | | | | | | | | | | | | | | |
E |-3---5---7---8-8-|-7-------5----|-10------12-10-8-7-|-8-------10-8-7----|
B |-----------------|--------------|-------------------|----------------10-|
G |-----------------|--------------|-------------------|-------------------|
D |-----------------|--------------|-------------------|-------------------|
A |-----------------|--------------|-------------------|-------------------|
E |-----------------|--------------|-------------------|-------------------|

Esta é a página - 59 -
© Copyright by Sandro Rogério Martins – Todos os direitos reservados.“A rapadura é mole, mas não é doce. Pensou que ia ser moleza!” Nada é fácil nesta vida.

17 | | | | | | | | | | | | | | | |
E |-7-------8-7-5-3-|-5------------|-3---5---7---8-8-|-7-------5----|
B |-----------------|---------3----|-----------------|--------------|
G |-----------------|--------------|-----------------|--------------|
D |-----------------|--------------|-----------------|--------------|
A |-----------------|--------------|-----------------|--------------|
E |-----------------|--------------|-----------------|--------------|

21 | | | |
E |--------------|
B |--------------|
G |-12-----------|
D |--------------|
A |--------------|
E |--------------|

2-15 SH089 O primeiro


primeiro natal
Tom:

1 | | | | | | | | | | | | | | | | | |
E |-2-0------0-|-2-3-5----|-7-9-10--9-|-7--------|-7-9-10--9-|-7-------7-|
B |-----3------|----------|-----------|-----10---|-----------|-----10----|
G |------------|----------|-----------|----------|-----------|-----------|
D |------------|----------|-----------|----------|-----------|-----------|
A |------------|----------|-----------|----------|-----------|-----------|
E |------------|----------|-----------|----------|-----------|-----------|

7 | | | | | | | | | | | | | | | | | |
E |-9---10--5-|-3---2----|-2-0------0-|-2-3-5----|-7-9-10--9-|-7--------|
B |-----------|----------|-----3------|----------|-----------|-----10---|
G |-----------|----------|------------|----------|-----------|----------|
D |-----------|----------|------------|----------|-----------|----------|
A |-----------|----------|------------|----------|-----------|----------|
E |-----------|----------|------------|----------|-----------|----------|

13 | | | | | | | | | | | | | | | | | |
E |-7-9-10--9-|-7-------7-|-9---10--5-|-3---2----|-2-0------0-|-2-3------|
B |-----------|-----10----|-----------|----------|-----3------|-----10---|
G |-----------|-----------|-----------|----------|------------|----------|
D |-----------|-----------|-----------|----------|------------|----------|
A |-----------|-----------|-----------|----------|------------|----------|
E |-----------|-----------|-----------|----------|------------|----------|

19 | | | | | | | | | | | | | | | | | |
E |-10-9------|----------|-----10--9-|------------|-9---10-----|----------|
B |------12---|-12--10---|-----------|-12--10--12-|---------10-|----------|
G |-----------|----------|-----------|------------|------------|-12--11---|
D |-----------|----------|-----------|------------|------------|----------|
A |-----------|----------|-----------|------------|------------|----------|
E |-----------|----------|-----------|------------|------------|----------|
2-16 SH095 A história de Cristo
Tom:

1 | | | | | | | | | | | | | | | | | |
E |-3-4-5-6-8-6-6--------|-------------3--------|-3-4-5-6-8-6-6----11--|
B |------------------6---|-------6-6-6----------|----------------------|
G |----------------------|-8-8-8----------------|----------------------|
D |----------------------|----------------------|----------------------|
A |----------------------|----------------------|----------------------|
E |----------------------|----------------------|----------------------|

4 | | | | | | | | | | | | | | | | | |
E |-10-6-10-8-6-5-6--------|-4-4-4-4-6-4-4----3---|-8-8-8-11-10-8----------|
B |------------------------|----------------------|---------------11-------|
G |------------------------|----------------------|------------------------|
D |------------------------|----------------------|------------------------|
A |------------------------|----------------------|------------------------|
E |------------------------|----------------------|------------------------|
Esta é a página - 60 -
© 2008 by Tablat32 – Cópias somente com autorização

7 | | | | | | | | | | | |
E |-11-11-11-10-10-10-8----11--|-6-6-6-6--------------|
B |----------------------------|---------9-6-8--------|
G |----------------------------|----------------------|
D |----------------------------|----------------------|
A |----------------------------|----------------------|
E |----------------------------|----------------------|

9 | | | | | | | | | | | |
E |-11-11-11-10-10-10-8----11--|-6-6-6-6--------------|
B |----------------------------|---------9-6----------|
G |----------------------------|-------------8--------|
D |----------------------------|----------------------|
A |----------------------------|----------------------|
E |----------------------------|----------------------|

2-17 SH098 Cantai e folgai


Tom:

1 | | | | | | | | | | | | | | | | | |
E |-----3---3-|-3---3----|-3-5-7---7-|-7---7----|---7-10--10-|-10--12--10-|
B |-3---------|----------|-----------|----------|-8----------|------------|
G |-----------|----------|-----------|----------|------------|------------|
D |-----------|----------|-----------|----------|------------|------------|
A |-----------|----------|-----------|----------|------------|------------|
E |-----------|----------|-----------|----------|------------|------------|

7 | | | | | | | | | | | | | | | | | |
E |------------|----------|-10-10-12--10-|--------------|-10--12--10-|----------|
B |-12--12--10-|-10--10---|--------------|-12-10--------|------------|-12--10---|
G |------------|----------|--------------|-------12--12-|------------|----------|
D |------------|----------|--------------|--------------|------------|----------|
A |------------|----------|--------------|--------------|------------|----------|
E |------------|----------|--------------|--------------|------------|----------|

13 | | | | | | | | | | | |
E |-10-10-12--10-|-------3---3-|-7---8---7-|-5--------|
B |--------------|-12-10-------|-----------|----------|
G |--------------|-------------|-----------|-----12---|
D |--------------|-------------|-----------|----------|
A |--------------|-------------|-----------|----------|
E |--------------|-------------|-----------|----------|
2-18 SH102 Sossegai
Tom:

1 | | | | | | | | | | | | | | | | | |
E |----------8-12-10-------8-|-7-5-3----3-----------3-|-3-5-3-3-8-12-10---5---8-|
B |-8-10-8-8-----------10----|-------6-----5----------|-------------------------|
G |--------------------------|------------------------|-------------------------|
D |--------------------------|------------------------|-------------------------|
A |--------------------------|------------------------|-------------------------|
E |--------------------------|------------------------|-------------------------|

4 | | | | | | | | | | | | | | | | | |
E |-7-5---5--7--8--------|-------------5----7---|-8-7-5-3--2--3------------|
B |-----8----------------|-5-5-5-5-5-5----------|----------------------5-6-|
G |----------------------|----------------------|--------------------------|
D |----------------------|----------------------|--------------------------|
A |----------------------|----------------------|--------------------------|
E |----------------------|----------------------|--------------------------|

7 | | | | | | | | | | | | | | | | | |
E |-3-5-3-3-8-12-10---5---8-|-7-5---5--7--8----------|-------------1---1-1--|
B |-------------------------|-----8----------------5-|-5-5-5-5-5-5----------|
G |-------------------------|------------------------|----------------------|
D |-------------------------|------------------------|----------------------|
A |-------------------------|------------------------|----------------------|
E |-------------------------|------------------------|----------------------|

Esta é a página - 61 -
© Copyright by Sandro Rogério Martins – Todos os direitos reservados.“A rapadura é mole, mas não é doce. Pensou que ia ser moleza!” Nada é fácil nesta vida.

10 | | | | | | | | | | | | | | | | | |
E |-------------0--------|-0-0-0-0-0-0------------|-3-3-3-3-3-3-5-5-5-5--5-|
B |-3--------3-----------|-------------6---6-6--6-|------------------------|
G |----------------------|------------------------|------------------------|
D |----------------------|------------------------|------------------------|
A |----------------------|------------------------|------------------------|
E |----------------------|------------------------|------------------------|

13 | | | | | | | | | | | |
E |-7-7-7-7-7-7-8---8-8--8-|-10-10-10-10-8-10-12--12-12----|
B |------------------------|-----------------------------8-|
G |------------------------|-------------------------------|
D |------------------------|-------------------------------|
A |------------------------|-------------------------------|
E |------------------------|-------------------------------|

15 | | | | | | | | | | | | | | | | | |
E |-12--10-8-7--------0----|-------------------------|-12--10-8-7-5-3-----3--|
B |------------10-8-----8--|-6-----6-----5-----5-----|------------------5----|
G |------------------------|-----7-----------5----12-|-----------------------|
D |------------------------|-------------------------|-----------------------|
A |------------------------|-------------------------|-----------------------|
E |------------------------|-------------------------|-----------------------|

18 | | | | | |
E |----------3--0--------|
B |-6----3---------------|
G |----------------------|
D |----------------------|
A |----------------------|
E |----------------------|
2-19 SH110 A mensagem da cruz
Tom:

1 | | | | | | | | | | | |
E |--------0-3-1---1-1-3--2-5-3-|-3-3-5--3----------------|
B |-3-4-6-----------------------|----------6-4-6-4-3------|
G |-----------------------------|-------------------------|
D |-----------------------------|-------------------------|
A |-----------------------------|-------------------------|
E |-----------------------------|-------------------------|

3 | | | | | | | | | | | |
E |--------0-3-1---1-1-3--2-5-3-|-3-3-5--3----11-10-8-6------|
B |-3-4-6-----------------------|----------------------------|
G |-----------------------------|----------10----------------|
D |-----------------------------|----------------------------|
A |-----------------------------|----------------------------|
E |-----------------------------|----------------------------|

5 | | | | | | | | | | | |
E |-5-6-8--8-8-8-6-5-6------|-6-5--------6-5----------|
B |-------------------------|-----8--8-8-----8-6------|
G |-------------------------|-------------------------|
D |-------------------------|-------------------------|
A |-------------------------|-------------------------|
E |-------------------------|-------------------------|

7 | | | | | | | | | | | |
E |---6-10--10-10-10-11-10--------|-11-11-10--8-6---5-8---------|
B |-6----------------------8------|---------------6-----11------|
G |-------------------------------|-----------------------------|
D |-------------------------------|-----------------------------|
A |-------------------------------|-----------------------------|
E |-------------------------------|-----------------------------|

Esta é a página - 62 -
© 2008 by Tablat32 – Cópias somente com autorização

2-20 SH125 A vitória final


final
Tom:

1 | | | | | | | | | | | | | | | |
E |-4-6-8-8-8-8-8-6-|-4-4-6-4-4-----|-4-6-8-8-8-8-8-8-|-6---6--------|
B |-----------------|-----------6-4-|-----------------|---9----------|
G |-----------------|---------------|-----------------|--------------|
D |-----------------|---------------|-----------------|--------------|
A |-----------------|---------------|-----------------|--------------|
E |-----------------|---------------|-----------------|--------------|

5 | | | | | | | | | | | | | | | |
E |---6-8-8-8-8-8-6-|-4-4-6-4-4-----|-4-6-8-8-8-4-6-6-|-6------------|
B |-9---------------|-----------6-4-|-----------------|---8-9--------|
G |-----------------|---------------|-----------------|--------------|
D |-----------------|---------------|-----------------|--------------|
A |-----------------|---------------|-----------------|--------------|
E |-----------------|---------------|-----------------|--------------|

9 | | | | | | | | | | | | | | | |
E |-8-9-11-------9-|-8-9-11------8-|-8-8-9--------8-|----8-9----------|
B |----------------|---------------|----------------|-11-----------11-|
G |----------------|---------------|----------------|-----------------|
D |----------------|---------------|----------------|-----------------|
A |----------------|---------------|----------------|-----------------|
E |----------------|---------------|----------------|-----------------|

13 | | | | | | | | | | | | | | | |
E |-8-9-11-------8-|--------------9-|-9----8-8-8---------|----------------|
B |----------------|-11-9-9---------|---11-------9-11-11-|-11-------------|
G |----------------|----------------|--------------------|----12-13-------|
D |----------------|----------------|--------------------|----------------|
A |----------------|----------------|--------------------|----------------|
E |----------------|----------------|--------------------|----------------|

2-21 SH126 Não tardará


Tom:

1 | | | | | | | | | | | | | | | | | |
E |---------6--6--5-6-8-6--|---------6-8-10-11-10-8--|-10-8-6-6-5---------6--|
B |-6-----6----------------|-6-----6-----------------|------------8-6---6----|
G |---7-8------------------|---7-8-------------------|----------------7------|
D |------------------------|-------------------------|-----------------------|
A |------------------------|-------------------------|-----------------------|
E |------------------------|-------------------------|-----------------------|

4 | | | | | | | | | | | |
E |-5-5-5-5-6-8-6--------|-11-11-11-11-11-11-10-10-10-10--|
B |----------------------|--------------------------------|
G |----------------------|--------------------------------|
D |----------------------|--------------------------------|
A |----------------------|--------------------------------|
E |----------------------|--------------------------------|

6 | | | | | | | | | | | |
E |-10-8-10-13-11-10-8--------|---------6-8-10-8-10-11--|
B |---------------------------|-6-----6-----------------|
G |---------------------------|---7-8-------------------|
D |---------------------------|-------------------------|
A |---------------------------|-------------------------|
E |---------------------------|-------------------------|

8 | | | | | |
E |-11-10-8-8----------------|
B |-----------11-10-11-------|
G |--------------------------|
D |--------------------------|
A |--------------------------|
E |--------------------------|.

Esta é a página - 63 -
© Copyright by Sandro Rogério Martins – Todos os direitos reservados.“A rapadura é mole, mas não é doce. Pensou que ia ser moleza!” Nada é fácil nesta vida.

2-22 SH131 O dia de Cristo


Tom:
1 | | | | | | | | | | | | | | | | | |
E |-----3---3-|---3-4---4-|-6-3-------|-3--------|-----3---3-|---3-4---4-|
B |-4-6-------|-6---------|-----4---4-|-----6----|-4-6-------|-6---------|
G |-----------|-----------|-----------|----------|-----------|-----------|
D |-----------|-----------|-----------|----------|-----------|-----------|
A |-----------|-----------|-----------|----------|-----------|-----------|
E |-----------|-----------|-----------|----------|-----------|-----------|

7 | | | | | | | | | | | | | | | | | |
E |-3-4-6-8-6-4-|-3--------|-3-4-6---6-|-8---6---6-|-6---11--10-|-8---6----|
B |-------------|---6-4----|-----------|-----------|------------|----------|
G |-------------|----------|-----------|-----------|------------|----------|
D |-------------|----------|-----------|-----------|------------|----------|
A |-------------|----------|-----------|-----------|------------|----------|
E |-------------|----------|-----------|-----------|------------|----------|

13 | | | | | | | | | | | | | | | | | |
E |-----6---6-|-8---6---6-|-6---11--10-|-8---6----|-6-4-3---3-|---3-4---4-|
B |-8-9-------|-----------|------------|----------|-----------|-6---------|
G |-----------|-----------|------------|----------|-----------|-----------|
D |-----------|-----------|------------|----------|-----------|-----------|
A |-----------|-----------|------------|----------|-----------|-----------|
E |-----------|-----------|------------|----------|-----------|-----------|

19 | | | | | | | | | | | | | | | | | |
E |-6-3-------|-3--------|-----3---3-|---3-4---4-|-3-4-6-8-6-4-|-3--------|
B |-----4---4-|-----6----|-4-6-------|-6---------|-------------|---6------|
G |-----------|----------|-----------|-----------|-------------|----------|
D |-----------|----------|-----------|-----------|-------------|-----13---|
A |-----------|----------|-----------|-----------|-------------|----------|
E |-----------|----------|-----------|-----------|-------------|----------|.

2-23 SH138 Achei um bom amigo


Tom:

1 | | | | | | | | | | | | | | | | | |
E |---5-8--8--10--8-8-5----|-1-3--1--1-----------1-|-3-5--5--5---5-10--8--5-|
B |-6----------------------|-------------3-1-------|------------------------|
G |------------------------|-----------------------|------------------------|
D |------------------------|-----------------------|------------------------|
A |------------------------|-----------------------|------------------------|
E |------------------------|-----------------------|------------------------|

4 | | | | | | | | | | | | | | | | | |
E |-----------------------|-5-8--8--10--8-8-5------|-1-3--1--1-----------1-|
B |-6-8-----------------6-|------------------------|-------------3-1-------|
G |-----------------------|------------------------|-----------------------|
D |-----------------------|------------------------|-----------------------|
A |-----------------------|------------------------|-----------------------|
E |-----------------------|------------------------|-----------------------|

7 | | | | | | | | | | | | | | | | | |
E |-3-5--5--3---1-3--3--1-|-0----------------------|-----6-6-----6-6-10------|
B |-----------------------|---6------------------6-|--6----------------------|
G |-----------------------|------------------------|-------------------------|
D |-----------------------|------------------------|-------------------------|
A |-----------------------|------------------------|-------------------------|
E |-----------------------|------------------------|-------------------------|

10 | | | | | | | | | | | | | | | | | |
E |-10-10-8-8-----5-8-----5-|---------------10--8--5-|-----------------------|
B |-------------------------|-8-6--6--6---6----------|-6-8-----------------6-|
G |-------------------------|------------------------|-----------------------|
D |-------------------------|------------------------|-----------------------|
A |-------------------------|------------------------|-----------------------|
E |-------------------------|------------------------|-----------------------|>
Esta é a página - 64 -
© 2008 by Tablat32 – Cópias somente com autorização

13 | | | | | | | | | | | | | | | | | |
E |-5-8--8--10--8-8-5----|-1-3--1--1-----------1-|-3-5--5--3---1-3--3--1-|
B |----------------------|-------------3-1-------|-----------------------|
G |----------------------|-----------------------|-----------------------|
D |----------------------|-----------------------|-----------------------|
A |----------------------|-----------------------|-----------------------|
E |----------------------|-----------------------|-----------------------|

16 | | | | | |
E |-0---------------------|
B |-----------------------|
G |---10------------------|
D |-----------------------|
A |-----------------------|
E |-----------------------|.
2-24 SH140 Bondoso amigo
Tom:

1 | | | | | | | | | | | | | | | |
E |-8----8--10-8-5---|--------------|---------5---8-5-|--------------|
B |----------------6-|-6------------|------6----6-----|-8------------|
G |------------------|---------7----|-5---------------|--------------|
D |------------------|--------------|-----------------|--------------|
A |------------------|--------------|-----------------|--------------|
E |------------------|--------------|-----------------|--------------|

5 | | | | | | | | | | | | | | | |
E |-8----8--10-8-5-1-|-1------------|------1--5-3---0-|--------------|
B |------------------|---------3----|-1-----------6---|-6------------|
G |------------------|--------------|-----------------|--------------|
D |------------------|--------------|-----------------|--------------|
A |------------------|--------------|-----------------|--------------|
E |------------------|--------------|-----------------|--------------|

9 | | | | | | | | | | | | | | | |
E |-3----2--3-5-6-3-|-5-------8----|-10---10-8-5-6-5-|--------------|
B |-----------------|--------------|-----------------|-8------------|
G |-----------------|--------------|-----------------|--------------|
D |-----------------|--------------|-----------------|--------------|
A |-----------------|--------------|-----------------|--------------|
E |-----------------|--------------|-----------------|--------------|

13 | | | | | | | | | | | | | | | |
E |-8----8--10-8-5-1-|-1------------|------1--5-3-1-0-|--------------|
B |------------------|---------3----|-1---------------|--------------|
G |------------------|--------------|-----------------|-10-----------|
D |------------------|--------------|-----------------|--------------|
A |------------------|--------------|-----------------|--------------|
E |------------------|--------------|-----------------|--------------|.

2-25 SH153 Morri na cruz por ti


Tom:

1 | | | | | | | | | | | | | | | | | |
E |-3-3--3------3-5-----8-7-|-5-3--3------3--------|-3-3--3--0------------8-7-|
B |---------5---------------|---------6-----5------|-------------8-10---------|
G |-------------------------|----------------------|--------------------------|
D |-------------------------|----------------------|--------------------------|
A |-------------------------|----------------------|--------------------------|
E |-------------------------|----------------------|--------------------------|

4 | | | | | | | | | | | | | | | | | |
E |----------7----7-8------|-8-10--10-10-8-7-8--8----|-8-7--7--7----7-8------|
B |-10-8--8----10----------|-----------------------8-|-----------10----------|
G |------------------------|-------------------------|-----------------------|
D |------------------------|-------------------------|-----------------------|
A |------------------------|-------------------------|-----------------------|
E |------------------------|-------------------------|-----------------------|>

Esta é a página - 65 -
© Copyright by Sandro Rogério Martins – Todos os direitos reservados.“A rapadura é mole, mas não é doce. Pensou que ia ser moleza!” Nada é fácil nesta vida.

7 | | | | | | | | | | | |
E |-8-10--10-10-8-7-8--8----|-8-7--7--7---------------|
B |-----------------------8-|-----------10-12-13------|
G |-------------------------|-------------------------|
D |-------------------------|-------------------------|
A |-------------------------|-------------------------|
E |-------------------------|-------------------------|.
2-26 SH168 Senhor eu preciso de ti
Tom:

1 | | | | | | | | | | | | | | | | | |
E |-5-----|-------|-0---1-|-----1-|-3---5-|-----5-|-6---5-|-----5-|-5---10-|
B |-----3-|-----3-|-------|-------|-------|-------|-------|-------|--------|
G |-------|-------|-------|-------|-------|-------|-------|-------|--------|
D |-------|-------|-------|-------|-------|-------|-------|-------|--------|
A |-------|-------|-------|-------|-------|-------|-------|-------|--------|
E |-------|-------|-------|-------|-------|-------|-------|-------|--------|

10 | | | | | | | | | | | | | | | | | | | |
E |-----10-|-8---6-|-----6-|-5---4-|-----4-|-4---5-|------|-5-----|-----5-|-------|
B |--------|-------|-------|-------|-------|-------|------|-----8-|-------|-8---6-|
G |--------|-------|-------|-------|-------|-------|------|-------|-------|-------|
D |--------|-------|-------|-------|-------|-------|------|-------|-------|-------|
A |--------|-------|-------|-------|-------|-------|------|-------|-------|-------|
E |--------|-------|-------|-------|-------|-------|------|-------|-------|-------|

20 | | | | | | | | | | | | | | | | | | | |
E |-------|-5-----|-------|-----5-|-----5-|-5---5-|-10--8-|-6---5-|-----5-|-3-----|
B |-----6-|-----8-|-----6-|-5-----|-------|-------|-------|-------|-------|-----6-|
G |-------|-------|-------|-------|-------|-------|-------|-------|-------|-------|
D |-------|-------|-------|-------|-------|-------|-------|-------|-------|-------|
A |-------|-------|-------|-------|-------|-------|-------|-------|-------|-------|
E |-------|-------|-------|-------|-------|-------|-------|-------|-------|-------|

30 | | | | | |
E |-----0-|--------|------|
B |-------|-6------|------|
G |-------|--------|------|
D |-------|-----12-|------|
A |-------|--------|------|
E |-------|--------|------|.
2-27 SH170 Careço de Jesus
Tom:

1 | | | | | | | | | | | | | | | | | |
E |-4---8----6-|-4-3-4----|-4---4----6-|-4--------|----------8-|------8----|
B |------------|----------|------------|---6-4----|-4---11-----|-11--------|
G |------------|----------|------------|----------|------------|----8------|
D |------------|----------|------------|----------|------------|-----------|
A |------------|----------|------------|----------|------------|-----------|
E |------------|----------|------------|----------|------------|-----------|

7 | | | | | | | | | | | | | | | | | |
E |------------|-----------|-8---8------|-9-8-8---6-|-6---6------|-8-6-6---6-|
B |-9---8----9-|-8---------|----------9-|-----------|----------9-|-----------|
G |------------|---10-8----|------------|-----------|------------|-----------|
D |------------|-----------|------------|-----------|------------|-----------|
A |------------|-----------|------------|-----------|------------|-----------|
E |------------|-----------|------------|-----------|------------|-----------|

13 | | | | | | | | | | | |
E |----------6-|-----------|-6---8------|-6--------|
B |-9---9------|-9-6-----9-|----------9-|-----9----|
G |------------|-----8-----|------------|----------|
D |------------|-----------|------------|----------|
A |------------|-----------|------------|----------|
E |------------|-----------|------------|----------|.
Esta é a página - 66 -
© 2008 by Tablat32 – Cópias somente com autorização

2-28 SH172
SH172 Abrigo no temporal
Tom:

1 | | | | | | | | | | | | | | | | | | | |
E |-----1---1---1-|-3---5---6---8-|--5--5-5-5-5-6-|-5---3--------|-----1---1---1-|
B |-1-------------|---------------|---------------|--------------|-1-------------|
G |---------------|---------------|---------------|--------------|---------------|
D |---------------|---------------|---------------|--------------|---------------|
A |---------------|---------------|---------------|--------------|---------------|
E |---------------|---------------|---------------|--------------|---------------|

6 | | | | | | | | | | | | | | | |
E |-3---5---6---8-|-----5-5-5-----|--------------|-8---10-10-10-10-10-|
B |---------------|--6--------6-8-|-8---6--------|--------------------|
G |---------------|---------------|--------------|--------------------|
D |---------------|---------------|--------------|--------------------|
A |---------------|---------------|--------------|--------------------|
E |---------------|---------------|--------------|--------------------|

10 | | | | | | | | | | | | | | | |
E |-12-10-8---8---8-|--5--6---6---6-|-----5---5---5-|-8---10-10-10-10-10-|
B |-----------------|---------------|--8------------|--------------------|
G |-----------------|---------------|---------------|--------------------|
D |-----------------|---------------|---------------|--------------------|
A |-----------------|---------------|---------------|--------------------|
E |-----------------|---------------|---------------|--------------------|>

14 | | | | | | | | | | | |
E |-12-10-8---8---8-|-----5-5-5-----|--------------|
B |-----------------|--6--------6-8-|-8------------|
G |-----------------|---------------|-----10-------|
D |-----------------|---------------|--------------|
A |-----------------|---------------|--------------|
E |-----------------|---------------|--------------|.

2-29 SH183 Contemplação de Deus


Tom:

1 | | | | | | | | | | | | | | | |
E |-3---3---3---6-|-6---4-3-4---1-|-1---1---1-3-4-6-|-8---6---6----|
B |---------------|---------------|-----------------|--------------|
G |---------------|---------------|-----------------|--------------|
D |---------------|---------------|-----------------|--------------|
A |---------------|---------------|-----------------|--------------|
E |---------------|---------------|-----------------|--------------|

5 | | | | | | | | | | | | | | | |
E |-3---3---3---6-|-6---4-3-4-----|---3-4----8------|--------------|
B |---------------|-------------6-|-6-----11-----11-|--------------|
G |---------------|---------------|-----------------|-8------------|
D |---------------|---------------|-----------------|--------------|
A |---------------|---------------|-----------------|--------------|
E |---------------|---------------|-----------------|--------------|

9 | | | | | | | | | | | | | | | |
E |-8---8---8-10-11-8-|-6---6---6-----|---------------6-|-8---6---6----|
B |-------------------|-------------8-|-6---6---6-8-9---|--------------|
G |-------------------|---------------|-----------------|--------------|
D |-------------------|---------------|-----------------|--------------|
A |-------------------|---------------|-----------------|--------------|
E |-------------------|---------------|-----------------|--------------|

13 | | | | | | | | | | | | | | | |
E |-8---8---8-10-11-8-|-6---6---6-----|-------6-8---6-|--------------|
B |-------------------|-------------8-|-6-8-9---------|--------------|
G |-------------------|---------------|---------------|-8------------|
D |-------------------|---------------|---------------|--------------|
A |-------------------|---------------|---------------|--------------|
E |-------------------|---------------|---------------|--------------|>

Esta é a página - 67 -
© Copyright by Sandro Rogério Martins – Todos os direitos reservados.“A rapadura é mole, mas não é doce. Pensou que ia ser moleza!” Nada é fácil nesta vida.

2-30 SH184 Coração em paz


Tom:

1 | | | | | | | | | | | | | | | |
E |---------11-8------|-----------------|-8-11-10--10-11-10-8-|----------8------|
B |-8-9-11-------11-8-|------8---9---11-|---------------------|-11-9-8-------11-|
G |-------------------|-8-10------------|---------------------|-----------------|
D |-------------------|-----------------|---------------------|-----------------|
A |-------------------|-----------------|---------------------|-----------------|
E |-------------------|-----------------|---------------------|-----------------|

5 | | | | | | | | | | | | | | | |
E |---------11-8------|--------------6-|-6-------6-10-13-10-|-6-------5---6-|
B |-8-9-11-------11-8-|------8---9-----|---8-6--------------|---6-8---------|
G |-------------------|-8-10-----------|--------------------|---------------|
D |-------------------|----------------|--------------------|---------------|
A |-------------------|----------------|--------------------|---------------|
E |-------------------|----------------|--------------------|---------------|

9 | | | | | | | | | | | | | | | |
E |-6-5-8---6-----|-6-5-8---6-----|-6-11-10--10--10-8-|-6-4-3---8---6-|
B |-------------6-|-------------8-|-------------------|---------------|
G |---------------|---------------|-------------------|---------------|
D |---------------|---------------|-------------------|---------------|
A |---------------|---------------|-------------------|---------------|
E |---------------|---------------|-------------------|---------------|

13 | | | | | | | | | | | | | | | |
E |-6-5-8---6-----|-6-5-8---6---11-|-----------10-------11-|----4-3----------|
B |-------------6-|----------------|---6----11----13-11----|-11-------6------|
G |---------------|----------------|-8---12----------------|-----------------|
D |---------------|----------------|-----------------------|--------------13-|
A |---------------|----------------|-----------------------|-----------------|
E |---------------|----------------|-----------------------|-----------------|.

2-31 SH216 Vem espirito divino


Tom:

1 | | | | | | | | | | | | | | | |
E |-8----6--4-3-4---|---------4----|-6----6--4---6-|-8------------|
B |---------------6-|-4------------|---------------|--------------|
G |-----------------|--------------|---------------|--------------|
D |-----------------|--------------|---------------|--------------|
A |-----------------|--------------|---------------|--------------|
E |-----------------|--------------|---------------|--------------|

5 | | | | | | | | | | | | | | | | | | | |
E |-8----6--4-3-4---|---------4----|-6----4--8---6-|--------------|-11------8----|
B |---------------6-|-4------------|---------------|-9------------|--------------|
G |-----------------|--------------|---------------|--------------|--------------|
D |-----------------|--------------|---------------|--------------|--------------|
A |-----------------|--------------|---------------|--------------|--------------|
E |-----------------|--------------|---------------|--------------|--------------|

10 | | | | | | | | | | | | | | | | | | | |
E |-6----4-------|-----4---8---4-|-6------------|-8----6--4-3-4---|---------4----|
B |---------6----|-4-------------|--------------|---------------6-|-4------------|
G |--------------|---------------|--------------|-----------------|--------------|
D |--------------|---------------|--------------|-----------------|--------------|
A |--------------|---------------|--------------|-----------------|--------------|
E |--------------|---------------|--------------|-----------------|--------------|

15 | | | | | | | |
E |-6----4--8---6-|--------------|
B |---------------|--------------|
G |---------------|-13-----------|
D |---------------|--------------|
A |---------------|--------------|
E |---------------|--------------|.

Esta é a página - 68 -
© 2008 by Tablat32 – Cópias somente com autorização

2-32 SH231 Coroai (1)


Tom:

1 | | | | | | | | | | | | | | | | | |
E |-----4----|-6---8-9-11-|-----6-----|----------|------------|-----------|
B |-4--------|------------|-9-------9-|-8---9----|-8-6------6-|---------4-|
G |----------|------------|-----------|----------|-----8------|-8-6-5-----|
D |----------|------------|-----------|----------|------------|-----------|
A |----------|------------|-----------|----------|------------|-----------|
E |----------|------------|-----------|----------|------------|-----------|

7 | | | | | | | | | | | | | | | | | |
E |-4-------9-|-9---8----|-6--------|---6-8----|-8---8---6-|-----6-----|
B |-----6-----|----------|-----9----|-9--------|-----------|-9-------9-|
G |-----------|----------|----------|----------|-----------|-----------|
D |-----------|----------|----------|----------|-----------|-----------|
A |-----------|----------|----------|----------|-----------|-----------|
E |-----------|----------|----------|----------|-----------|-----------|

13 | | | | | | | | | | | | | | | | | |
E |-------6-8-|-11--9----8-|-6-9-8----6-|---8-6------|---6-------|-----9---9-|
B |-8---9-----|------------|------------|-9--------9-|-8---9---9-|-----------|
G |-----------|------------|------------|------------|-----------|-----------|
D |-----------|------------|------------|------------|-----------|-----------|
A |-----------|------------|------------|------------|-----------|-----------|
E |-----------|------------|------------|------------|-----------|-----------|

19 | | | | | | | | | | | | | | |
E |-----6---6-|-----8---8-|-11----6-8-|-6--------|----------|
B |-----------|-----------|-----9-----|-----9----|-8---9----|
G |-----------|-----------|-----------|----------|----------|
D |-----------|-----------|-----------|----------|----------|
A |-----------|-----------|-----------|----------|----------|
E |-----------|-----------|-----------|----------|----------|.

2-33 SH232 Ao Deus de Abraão


Tom:

1 | | | | | | | | | | | | | | | | | | | |
E |-----1---------|-----8--------|---------8---9-|-11--8--------|-------------8-|
B |-1-------8---9-|-11-----------|-9---11--------|--------------|-8---9---11----|
G |---------------|--------------|---------------|--------------|---------------|
D |---------------|--------------|---------------|--------------|---------------|
A |---------------|--------------|---------------|--------------|---------------|
E |---------------|--------------|---------------|--------------|---------------|

6 | | | | | | | | | | | | | | | | | | | |
E |-9---11--------|-9---8----------|--------------|-----8---8---8-|-8------------|
B |---------8---9-|-------------11-|-----9--------|-9-------------|-----11-------|
G |---------------|----------------|--------------|---------------|--------------|
D |---------------|----------------|--------------|---------------|--------------|
A |---------------|----------------|--------------|---------------|--------------|
E |---------------|----------------|--------------|---------------|--------------|

11 | | | | | | | | | | | | | | | | | | | |
E |-----------6-8-|--------------|---------------|-6---8---6-8-9-|-8-6-4-------3-|
B |-9-8-6-8-9-----|-6---5--------|-----6---8---9-|---------------|---------------|
G |---------------|--------------|-5-------------|---------------|---------------|
D |---------------|--------------|---------------|---------------|---------------|
A |---------------|--------------|---------------|---------------|---------------|
E |---------------|--------------|---------------|---------------|---------------|>

16 | | | |
E |--------------|
B |--------------|
G |-----10-------|
D |--------------|
A |--------------|
E |--------------|.
Esta é a página - 69 -
© Copyright by Sandro Rogério Martins – Todos os direitos reservados.“A rapadura é mole, mas não é doce. Pensou que ia ser moleza!” Nada é fácil nesta vida.

2-34 SH233 O grande amor de Deus


Tom:

1 | | | | | | | | | | | | | | | | | |
E |----------|---3-4-----|-4---6-----|-6---8----|-8---9------|-9---8-----|
B |-4---4----|-6-------4-|---------4-|----------|------------|---------9-|
G |----------|-----------|-----------|----------|---------10-|-----------|
D |----------|-----------|-----------|----------|------------|-----------|
A |----------|-----------|-----------|----------|------------|-----------|
E |----------|-----------|-----------|----------|------------|-----------|

7 | | | | | | | | | | | | | | | | | |
E |-8---8---6-|-----6----|----------|---3-4-----|-4---6-----|-6---8----|
B |-----------|-6--------|-4---4----|-6-------4-|---------4-|----------|
G |-----------|----------|----------|-----------|-----------|----------|
D |-----------|----------|----------|-----------|-----------|----------|
A |-----------|----------|----------|-----------|-----------|----------|
E |-----------|----------|----------|-----------|-----------|----------|

13 | | | | | | | | | | | | | | | | | |
E |-8---11--9-|-----------|-----8---8-|----------|-8-9-11---|-8-9-11---|
B |-----------|-11--9---8-|-9---------|-11--9----|----------|----------|
G |-----------|-----------|-----------|----------|----------|----------|
D |-----------|-----------|-----------|----------|----------|----------|
A |-----------|-----------|-----------|----------|----------|----------|
E |-----------|-----------|-----------|----------|----------|----------|

19 | | | | | | | | | | | | | | | | | |
E |-11-8--------|-8--------|----8-9----|----8-9----|-9----11--11-|-9---8----|
B |------9---11-|-----11---|-11--------|-11--------|---11--------|----------|
G |-------------|----------|-----------|-----------|-------------|----------|
D |-------------|----------|-----------|-----------|-------------|----------|
A |-------------|----------|-----------|-----------|-------------|----------|
E |-------------|----------|-----------|-----------|-------------|----------|

25 | | | | | | | | | | | | | | | | | |
E |----------|---3-4-----|-4---6-----|-6---8----|-8---11--9-|-6---4---3-|
B |-4---4----|-6-------4-|---------4-|----------|-----------|-----------|
G |----------|-----------|-----------|----------|-----------|-----------|
D |----------|-----------|-----------|----------|-----------|-----------|
A |----------|-----------|-----------|----------|-----------|-----------|
E |----------|-----------|-----------|----------|-----------|-----------|

31 | | | | | |
E |-4---8---8-|-6--------|
B |-----------|----------|
G |-----------|-----13---|
D |-----------|----------|
A |-----------|----------|
E |-----------|----------|.

2-35 SH234 Exultação e louvor


Tom:

1 | | | | | | | | | | | | | | | |
E |-6-6-6-5-|-6-8-6-3-|---------|-------|-4-4-4-3-|-4-10-8-6-|-4-4-3-3-|--2-3--|
B |---------|---------|-4-4-3-3-|--2-3--|---------|----------|---------|-------|
G |---------|---------|---------|-------|---------|----------|---------|-------|
D |---------|---------|---------|-------|---------|----------|---------|-------|
A |---------|---------|---------|-------|---------|----------|---------|-------|
E |---------|---------|---------|-------|---------|----------|---------|-------|

9 | | | | | | | | | | | | | | | |
E |-3-3-3-2-|-3-8--|-6-6-4-4-|------|-------6-|-5-8-6---|------|-6-6-6-5-|
B |---------|------|---------|---6--|-----6---|-------9-|-6----|---------|
G |---------|------|---------|-5----|-8-7-----|---------|---8--|---------|
D |---------|------|---------|------|---------|---------|------|---------|
A |---------|------|---------|------|---------|---------|------|---------|
E |---------|------|---------|------|---------|---------|------|---------|>

Esta é a página - 70 -
© 2008 by Tablat32 – Cópias somente com autorização

17 | | | | | | | | | | | | | | | |
E |-6-8-6-3-|------4-|--4-4--|-4-4-3-4-|-6-10-8-6-|------6-|--6-6--|-6-6-6-5-|
B |---------|-4-3----|-------|---------|----------|-9-8----|-------|---------|
G |---------|--------|-------|---------|----------|--------|-------|---------|
D |---------|--------|-------|---------|----------|--------|-------|---------|
A |---------|--------|-------|---------|----------|--------|-------|---------|
E |---------|--------|-------|---------|----------|--------|-------|---------|

25 | | | | | | | | | | | |
E |-6-11--|---------|---8--|-8-8-6-10-|-8-6-5-4-|-------|
B |---8---|-8-8-6-5-|-6-6--|-6-6-6-6--|-6-6-6-6-|-6-----|
G |-------|---------|------|----------|---------|-------|
D |-------|---------|------|----------|---------|---13--|
A |-------|---------|------|----------|---------|-------|
E |-------|---------|------|----------|---------|-------|.

2-36 SH244 Mil vezes mil louvores


Tom:

1 | | | | | | | | | | | | | | | | | | | |
E |-10--10---8--7-|-5---3---------|-----3----3--5-|-5---7--------|-7---8----8--10-|
B |---------------|-------------3-|-3-------------|--------------|----------------|
G |---------------|---------------|---------------|--------------|----------------|
D |---------------|---------------|---------------|--------------|----------------|
A |---------------|---------------|---------------|--------------|----------------|
E |---------------|---------------|---------------|--------------|----------------|>

6 | | | | | | | | | | | | | | | | | | | |
E |-12--10---------|-----3----3--2-|-3---5--------|---------------|-----3-------3-|
B |-------------12-|-10------------|--------------|-3---3----3--3-|-3-------------|
G |----------------|---------------|--------------|---------------|---------------|
D |----------------|---------------|--------------|---------------|---------------|
A |----------------|---------------|--------------|---------------|---------------|
E |----------------|---------------|--------------|---------------|---------------|

11 | | | | | | | | | | | | | | | | | | | |
E |-3---5----5--3-|-5---7--------|-7---8----8--10-|-12--10------7-|-----7-------0-|
B |---------------|--------------|----------------|---------------|-8-------10----|
G |---------------|--------------|----------------|---------------|---------------|
D |---------------|--------------|----------------|---------------|---------------|
A |---------------|--------------|----------------|---------------|---------------|
E |---------------|--------------|----------------|---------------|---------------|

16 | | | | | | | | | | | | | | | | | | | |
E |--------------|-10--10--------|-10--10--------|-----12---10-8-|-7---8--------|
B |-7---8--------|----------7--7-|----------8--8-|-8-------------|--------------|
G |--------------|---------------|---------------|---------------|--------------|
D |--------------|---------------|---------------|---------------|--------------|
A |--------------|---------------|---------------|---------------|--------------|
E |--------------|---------------|---------------|---------------|--------------|

21 | | | | | | | | | | | | | | | |
E |-7-----------7-|-8---10---10-7-|-----12-12-----------|--------------|
B |-----10---10---|---------------|-8-------------------|--------------|
G |---------------|---------------|---------------11-11-|-----12-------|
D |---------------|---------------|---------------------|--------------|
A |---------------|---------------|---------------------|--------------|
E |---------------|---------------|---------------------|--------------|.
2-37 SH246 O rei sublime
Tom:

1 | | | | | | | | | | | | | | | | | | | |
E |-3-------6---4-|-3-------------|---------3---4-|-3------------|-6-------11--10-|
B |---------------|-------------6-|-4---6---------|---------6----|----------------|
G |---------------|---------------|---------------|--------------|----------------|
D |---------------|---------------|---------------|--------------|----------------|
A |---------------|---------------|---------------|--------------|----------------|
E |---------------|---------------|---------------|--------------|----------------|>
Esta é a página - 71 -
© Copyright by Sandro Rogério Martins – Todos os direitos reservados.“A rapadura é mole, mas não é doce. Pensou que ia ser moleza!” Nada é fácil nesta vida.

6 | | | | | | | | | | | | | | | | | | | |
E |-8-----------6-|-4-------3---4-|--------------|-3-------6---4-|-3-------------|
B |---------------|-----6---------|-6------------|---------------|-------------6-|
G |---------------|---------------|--------------|---------------|---------------|
D |---------------|---------------|--------------|---------------|---------------|
A |---------------|---------------|--------------|---------------|---------------|
E |---------------|---------------|--------------|---------------|---------------|

11 | | | | | | | | | | | | | | | | | | | |
E |---------3---5-|-8-------6----|-11------10--8-|-6-----------8-|-6-------5----|
B |-4---6---------|--------------|---------------|-----6---8-----|--------------|
G |---------------|--------------|---------------|---------------|--------------|
D |---------------|--------------|---------------|---------------|--------------|
A |---------------|--------------|---------------|---------------|--------------|
E |---------------|--------------|---------------|---------------|--------------|

16 | | | | | | | | | | | | | | | | | | | |
E |-6------------|---------------|--------------|-8-------------|--------------|
B |--------------|-6-------8---9-|-11-----------|---------11--9-|-8------------|
G |--------------|---------------|---------8----|---------------|--------------|
D |--------------|---------------|--------------|---------------|--------------|
A |--------------|---------------|--------------|---------------|--------------|
E |--------------|---------------|--------------|---------------|--------------|

21 | | | | | | | | | | | | | | | |
E |-11------10--8-|---------------|----------------|--------------|
B |---------------|-11--8-------9-|-8-------9------|--------------|
G |---------------|---------8-----|-------------10-|--------------|
D |---------------|---------------|----------------|-13-----------|
A |---------------|---------------|----------------|--------------|
E |---------------|---------------|----------------|--------------|.
2-38 SH247 Santo Santo Santo
Tom:
1 | | | | | | | | | | | | | | | | | | | |
E |---------3---3-|-6-------6----|-8---8---8---8-|-6------------|-6----6--6---6-|
B |-4---4---------|--------------|---------------|---------8----|---------------|
G |---------------|--------------|---------------|--------------|---------------|
D |---------------|--------------|---------------|--------------|---------------|
A |---------------|--------------|---------------|--------------|---------------|
E |---------------|--------------|---------------|--------------|---------------|

6 | | | | | | | | | | | | | | | | | | | |
E |-11------10--6-|-----6---8----6-|-6------------|---------3---3-|-6-------6----|
B |---------------|-6--------------|--------------|-4---4---------|--------------|
G |---------------|----------------|--------------|---------------|--------------|
D |---------------|----------------|--------------|---------------|--------------|
A |---------------|----------------|--------------|---------------|--------------|
E |---------------|----------------|--------------|---------------|--------------|

11 | | | | | | | | | | | | | | | | | | | |
E |-8----8--8---8-|-6-------6----|-11------6---6-|-8-------3----|-4---1---1------|
B |---------------|--------------|---------------|--------------|--------------4-|
G |---------------|--------------|---------------|--------------|----------------|
D |---------------|--------------|---------------|--------------|----------------|
A |---------------|--------------|---------------|--------------|----------------|
E |---------------|--------------|---------------|--------------|----------------|

16 | | | |
E |--------------|
B |-4------------|
G |--------------|
D |--------------|
A |--------------|
E |--------------|.

Esta é a página - 72 -
© 2008 by Tablat32 – Cópias somente com autorização

2-39 SH248 Louvamos-


Louvamos-te
Tom:
1 | | | | | | | | | | | | | | | | | |
E |-----1---1-|-3-5-6----|-5-6-8---6-|-3---1----|-1-1-1---3-|-5---6---8-|
B |-3-4-------|----------|-----------|----------|-----------|-----------|
G |-----------|----------|-----------|----------|-----------|-----------|
D |-----------|----------|-----------|----------|-----------|-----------|
A |-----------|----------|-----------|----------|-----------|-----------|
E |-----------|----------|-----------|----------|-----------|-----------|

7 | | | | | | | | | | | | | | | | | |
E |-10--10--8-|-----8----|-10-8--------|-------------|-----8---8-|-10--8----|
B |-----------|-11-------|------11--11-|-11-10-8---8-|-8-8-------|----------|
G |-----------|----------|-------------|-------------|-----------|----------|
D |-----------|----------|-------------|-------------|-----------|----------|
A |-----------|----------|-------------|-------------|-----------|----------|
E |-----------|----------|-------------|-------------|-----------|----------|

13 | | | | | | | | | | | |
E |-8-8-10--8-|-10-10-11--10-|-8-8-6---5-|-8--------|
B |-----------|--------------|-----------|-----11---|
G |-----------|--------------|-----------|----------|
D |-----------|--------------|-----------|----------|
A |-----------|--------------|-----------|----------|
E |-----------|--------------|-----------|----------|.
2-40 SH260 Invocação
Invocação para a leitura bíblica
Tom:

1 | | | | | | | | | | | | | | | | | | | |
E |------|-------|-----8-|------|------|-------|------|------|------|-------|
B |-8----|-----8-|-11----|-11---|-8----|-----8-|------|------|-8----|-----8-|
G |------|-8-----|-------|------|------|-8-----|-10---|------|------|-8-----|
D |------|-------|-------|------|------|-------|------|------|------|-------|
A |------|-------|-------|------|------|-------|------|------|------|-------|
E |------|-------|-------|------|------|-------|------|------|------|-------|

11 | | | | | | | | | | | | | | | | | | | |
E |-----8-|-----8-|-10---|-8----|------|------|------|-------|-8------|------|
B |-11----|-11----|------|------|-11---|------|------|-8---9-|-----11-|-8----|
G |-------|-------|------|------|------|------|-10---|-------|--------|------|
D |-------|-------|------|------|------|------|------|-------|--------|------|
A |-------|-------|------|------|------|------|------|-------|--------|------|
E |-------|-------|------|------|------|------|------|-------|--------|------|

21 | | | | | | | | | | | | | | | | | | | |
E |------|-8---8-|-10---|------|-11---|--------|-------|-8-----|------|------|
B |-11---|-------|------|------|------|-11-----|-----9-|-----9-|------|-11---|
G |------|-------|------|------|------|-----12-|-10----|-------|-10---|------|
D |------|-------|------|------|------|--------|-------|-------|------|------|
A |------|-------|------|------|------|--------|-------|-------|------|------|
E |------|-------|------|------|------|--------|-------|-------|------|------|

31 | | | |
E |------|------|
B |------|------|
G |------|------|
D |-13---|------|
A |------|------|
E |------|------|.
2-41 SH273 As novas do evangelho
Tom:

1 | | | | | | | | | | | | | | | | | | | |
E |-----0---0---0-|-----9---7----|-7-7-9---7---0-|-----4--------|-4-7-5-------4-|
B |-0-------------|-9------------|---------------|-7------------|---------7-----|
G |---------------|--------------|---------------|--------------|---------------|
D |---------------|--------------|---------------|--------------|---------------|
A |---------------|--------------|---------------|--------------|---------------|
E |---------------|--------------|---------------|--------------|---------------|>
Esta é a página - 73 -
© Copyright by Sandro Rogério Martins – Todos os direitos reservados.“A rapadura é mole, mas não é doce. Pensou que ia ser moleza!” Nada é fácil nesta vida.

6 | | | | | | | | | | | | | | | | | | | |
E |-0-------7----|-7-7-11--9---7-|-6---7--------|---------------|--------------|
B |-----7--------|---------------|--------------|-0---5---5---5-|-5---5--------|
G |--------------|---------------|--------------|---------------|--------------|
D |--------------|---------------|--------------|---------------|--------------|
A |--------------|---------------|--------------|---------------|--------------|
E |--------------|---------------|--------------|---------------|--------------|

11 | | | | | | | | | | | | | | | | | | | |
E |---4-----------|--------------|-4---0---0---0-|-0---0---0----|-0---4---5---4-|
B |-5---7---7---7-|-7---7--------|---7-----------|--------------|---7-----------|
G |---------------|--------------|---------------|--------------|---------------|
D |---------------|--------------|---------------|--------------|---------------|
A |---------------|--------------|---------------|--------------|---------------|
E |---------------|--------------|---------------|--------------|---------------|

16 | | | | | | | | | | | | | | | | | | | |
E |-----0--------|---0-7--------|------7--------|-7-7-9---7---0-|-----4--------|
B |-7------------|-9------------|-10-7----------|---------------|-7------------|
G |--------------|--------------|---------------|---------------|--------------|
D |--------------|--------------|---------------|---------------|--------------|
A |--------------|--------------|---------------|---------------|--------------|
E |--------------|--------------|---------------|---------------|--------------|

21 | | | | | | | | | | | | | | | |
E |-4-0----------|-------12-------|-0-2-4---7-5-4-|-2---0--------|
B |-----12-------|-12-------------|---------------|--------------|
G |--------------|----13----------|---------------|--------------|
D |--------------|----------------|---------------|--------------|
A |--------------|----------------|---------------|--------------|
E |--------------|----------------|---------------|--------------|.

2-42 SH274 Palavras de vida


Tom:

1 | | | | | | | | | | | | | | | | | |
E |-7---7-7-8-7-7----------|---------7--------------|-7---7-7-8-7-7----------|
B |-----------------10-10--|---10-10----10-8--------|-----------------10-10--|
G |------------------------|-7------------------7---|------------------------|
D |------------------------|------------------------|------------------------|
A |------------------------|------------------------|------------------------|
E |------------------------|------------------------|------------------------|

4 | | | | | | | | | | | | | | | | | |
E |---------7--------------|-7---7-7-8-10-12---10--|-7---7-7-8-10-12---10--|
B |---10-10----10-8--------|-----------------------|-----------------------|
G |-7----------------------|-----------------------|-----------------------|
D |------------------------|-----------------------|-----------------------|
A |------------------------|-----------------------|-----------------------|
E |------------------------|-----------------------|-----------------------|

7 | | | | | | | | | | | | | | | | | |
E |-10-8-8-8-----8-7-7-7--|-7-----------------7-10--|-10-8-8-8-----8-7-7-7--|
B |-----------------------|---10-8-10--7--8---------|-----------------------|
G |-----------------------|-------------------------|-----------------------|
D |-----------------------|-------------------------|-----------------------|
A |-----------------------|-------------------------|-----------------------|
E |-----------------------|-------------------------|-----------------------|

10 | | | | | |
E |-7-5---5--------------|
B |-----8----7--8----8---|
G |----------------------|
D |----------------------|
A |----------------------|
E |----------------------|.
Esta é a página - 74 -
© 2008 by Tablat32 – Cópias somente com autorização

2-43 SH282 Manso e suave


Tom:

1 | | | | | | | | | | | | | | | | | |
E |-8-6-4-4-3-4-6-4-------|-4-4-4-8--6-4-6--------|-8-6-4-4-3-4-6-4-------|
B |-----------------6-6-4-|-----------------------|-----------------6-6-4-|
G |-----------------------|-----------------------|-----------------------|
D |-----------------------|-----------------------|-----------------------|
A |-----------------------|-----------------------|-----------------------|
E |-----------------------|-----------------------|-----------------------|

4 | | | | | | | | | | | | | | | | | |
E |-4-4-9-8--4-6-4----------|-6--------8------6-8--|-6-6-6-8-8--10-11--10-9--|
B |-----------------------4-|-------------9--------|-------------------------|
G |-------------------------|----------------------|-------------------------|
D |-------------------------|----------------------|-------------------------|
A |-------------------------|----------------------|-------------------------|
E |-------------------------|----------------------|-------------------------|

7 | | | | | | | | | | | |
E |-8-6-4-4-3-4-6-4-------|-4-4-9-8-4-6-4--------|
B |-----------------6-6-4-|----------------------|
G |-----------------------|----------------------|
D |-----------------------|----------------------|
A |-----------------------|----------------------|
E |-----------------------|----------------------|.
2-44 SH284 A ultima hora
Tom:

1 | | | | | | | | | | | | | | | | | | | | |
E |-----5----|-5-5-6---5-|-----5----|----------|----------|-----6---5-|-----5----|
B |----------|-----------|-8--------|-----6----|-----8----|-8-8-------|-8--------|
G |-5-5------|-----------|----------|----------|-5-5------|-----------|----------|
D |----------|-----------|----------|----------|----------|-----------|----------|
A |----------|-----------|----------|----------|----------|-----------|----------|
E |----------|-----------|----------|----------|----------|-----------|----------|

8 | | | | | | | | | | | | | | | | | | | | |
E |----------|-----5----|-5-5-6---5-|-----5----|-----1----|-----3----|-3-3-6---5-|
B |----------|----------|-----------|-8--------|----------|-1-1------|-----------|
G |----------|-5-5------|-----------|----------|----------|----------|-----------|
D |----------|----------|-----------|----------|----------|----------|-----------|
A |----------|----------|-----------|----------|----------|----------|-----------|
E |----------|----------|-----------|----------|----------|----------|-----------|

15 | | | | | | | | | | | | | | | | | |
E |-3---1----|----------|-1-1-10---|----10-13--12-|-10--8----|----------|
B |----------|----------|----------|-11-----------|----------|-----10---|
G |----------|----------|----------|--------------|----------|----------|
D |----------|----------|----------|--------------|----------|----------|
A |----------|----------|----------|--------------|----------|----------|
E |----------|----------|----------|--------------|----------|----------|

21 | | | | | | | | | | | | | | | | | |
E |-8-8-8----|-6-5-3-----|-3--------|----------|-------10---|----10-13--12-|
B |----------|---------6-|-----10---|----------|------------|-11-----------|
G |----------|-----------|----------|----------|-10-10------|--------------|
D |----------|-----------|----------|----------|------------|--------------|
A |----------|-----------|----------|----------|------------|--------------|
E |----------|-----------|----------|----------|------------|--------------|

27 | | | | | | | | | | | | | | | | | |
E |-10--8----|----------|-8-8-8----|--------------|----------|----------|
B |----------|-----10---|----------|-11-10-----10-|----------|----------|
G |----------|----------|----------|-------12-----|-12--10---|----------|
D |----------|----------|----------|--------------|----------|----------|
A |----------|----------|----------|--------------|----------|----------|
E |----------|----------|----------|--------------|----------|----------|.
Esta é a página - 75 -
© Copyright by Sandro Rogério Martins – Todos os direitos reservados.“A rapadura é mole, mas não é doce. Pensou que ia ser moleza!” Nada é fácil nesta vida.

2-45 SH287 Mensagem do Senhor


Tom:

1 | | | | | | | | | | | | | | | | | | | |
E |-----3-3-3-3-2-|-0---10------8-|-5---3-3-3-3-2-|-5---3--------|-----3-3-3-3-2-|
B |-3-3-----------|---3-----------|---------------|--------------|-3-3-----------|
G |---------------|---------------|---------------|--------------|---------------|
D |---------------|---------------|---------------|--------------|---------------|
A |---------------|---------------|---------------|--------------|---------------|
E |---------------|---------------|---------------|--------------|---------------|

6 | | | | | | | | | | | | | | | |
E |-0---10------8-|-5-5-3-3-3-3-2-|-5---3--------|-10-10-10----------|
B |---3-----------|---------------|--------------|----------------12-|
G |---------------|---------------|--------------|-------------------|
D |---------------|---------------|--------------|-------------------|
A |---------------|---------------|--------------|-------------------|
E |---------------|---------------|--------------|-------------------|

10 | | | | | | | | | | | | | | | |
E |-------10-------|-10-10-10---------|-9---10-------|-----3-3-3-3-2-|
B |-10-------------|-----------12--10-|--------------|-3-3-----------|
G |----12----------|------------------|--------------|---------------|
D |----------------|------------------|--------------|---------------|
A |----------------|------------------|--------------|---------------|
E |----------------|------------------|--------------|---------------|

14 | | | | | | | | | | | |
E |-0---10------8-|-5-5-3-3-3-3-2-|-5------------|
B |---3-----------|---------------|--------------|
G |---------------|---------------|-----12-------|
D |---------------|---------------|--------------|
A |---------------|---------------|--------------|
E |---------------|---------------|--------------|.

2-46 SH302
SH302 Deixa o sol em ti nascer
Tom:

1 | | | | | | | | | | | | | | | |
E |---8-8-6-6-4-4---|-3---3---3----|---9-9-8-8-6-6-3-|-6---4---4----|
B |-4-------------6-|--------------|-4---------------|--------------|
G |-----------------|--------------|-----------------|--------------|
D |-----------------|--------------|-----------------|--------------|
A |-----------------|--------------|-----------------|--------------|
E |-----------------|--------------|-----------------|--------------|

5 | | | | | | | | | | | | | | | |
E |---8-8-6-6-4-4---|-3-------9----|-8-----------8-|--------------|
B |-4-------------4-|--------------|-------9-11----|-9------------|
G |-----------------|-----10-------|---8-8---------|--------------|
D |-----------------|--------------|---------------|--------------|
A |-----------------|--------------|---------------|--------------|
E |-----------------|--------------|---------------|--------------|

9 | | | | | | | | | | | | | | | |
E |---11-11-13-11----|--------------|---9-9-11-9-----|-8------------|
B |----------------9-|-8------------|----------------|--------------|
G |-8----------------|--------------|-8------------8-|--------------|
D |------------------|--------------|----------------|--------------|
A |------------------|--------------|----------------|--------------|
E |------------------|--------------|----------------|--------------|

13 | | | | | | | | | | | | | | | |
E |---11-11-13-11-8-----|---------9----|-8--------------|--------------|
B |-----------------9---|-8------------|-------9-11--13-|--------------|
G |-8-----------------8-|-----10-------|---8-8----------|-13-----------|
D |---------------------|--------------|----------------|--------------|
A |---------------------|--------------|----------------|--------------|
E |---------------------|--------------|----------------|--------------|.
Esta é a página - 76 -
© 2008 by Tablat32 – Cópias somente com autorização

2-47 SH303 A mensagem real


Tom:

1 | | | | | | | | | | | | | | | | | | | |
E |-------------4-|--4--4--------|-4-----------5-|--5--5--------|-5---4-------5-|
B |-0-------5-----|--------------|-----7---5-----|--------------|---------7-----|
G |-----6---------|--------------|---------------|--------------|---------------|
D |---------------|--------------|---------------|--------------|---------------|
A |---------------|--------------|---------------|--------------|---------------|
E |---------------|--------------|---------------|--------------|---------------|>

6 | | | | | | | | | | | | | | | | | | | |
E |--5--5--------|-5---4-------7-|--7--7--------|-------------4-|--4--4--------|
B |--------------|---------7-----|--------------|-0-------5-----|--------------|
G |--------------|---------------|--------------|-----6---------|--------------|
D |--------------|---------------|--------------|---------------|--------------|
A |--------------|---------------|--------------|---------------|--------------|
E |--------------|---------------|--------------|---------------|--------------|

11 | | | | | | | | | | | | | | | | | | | |
E |-4-------0---12-|--12-12-------|-12--11--9------|-9------------|-------------0-|
B |-----7----------|--------------|-------------12-|-----9--------|---------------|
G |----------------|--------------|----------------|--------------|-----11--------|
D |----------------|--------------|----------------|--------------|---------------|
A |----------------|--------------|----------------|--------------|---------------|
E |----------------|--------------|----------------|--------------|---------------|

16 | | | | | | | | | | | | | | | | | | | |
E |--------------|-------------11-|--------------|-11----------12-|--------------|
B |--------------|-12--12--12-----|--------------|-----14--12-----|--------------|
G |--------------|----------------|--------------|----------------|--------------|
D |--------------|----------------|--------------|----------------|--------------|
A |--------------|----------------|--------------|----------------|--------------|
E |--------------|----------------|--------------|----------------|--------------|

21 | | | | | | | | | | | | | | | | | | | |
E |-4-------4---5-|-7---11-------|-----9-------7-|--------------|-7---7---7---4-|
B |-----7---------|--------------|---------------|--------------|---------------|
G |---------------|--------------|---------------|--------------|---------------|
D |---------------|--------------|---------------|--------------|---------------|
A |---------------|--------------|---------------|--------------|---------------|
E |---------------|--------------|---------------|--------------|---------------|

26 | | | | | | | | | | | | | | | | | | | |
E |--4--4--------|-4-------0---12-|--12-12-------|-12--11--9------|-9------------|
B |--------------|-----7----------|--------------|-------------12-|-----9--------|
G |--------------|----------------|--------------|----------------|--------------|
D |--------------|----------------|--------------|----------------|--------------|
A |--------------|----------------|--------------|----------------|--------------|
E |--------------|----------------|--------------|----------------|--------------|

31 | | | | | | | |
E |-------------0-|--------------|
B |---------------|--------------|
G |-----11--------|--------------|
D |---------------|--------------|
A |---------------|--------------|
E |---------------|--------------|.
2-48 SH309 Como há de ser
Tom:

1 | | | | | | | | | | | | | | | | | | | |
E |---------------|-8-----------8-|-7---5---3-----|--------------|-----3-------3-|
B |---------5---8-|---------------|-------------6-|-6-------5----|---------5-----|
G |-----5---------|---------------|---------------|--------------|---------------|
D |---------------|---------------|---------------|--------------|---------------|
A |---------------|---------------|---------------|--------------|---------------|
E |---------------|---------------|---------------|--------------|---------------|>

Esta é a página - 77 -
© Copyright by Sandro Rogério Martins – Todos os direitos reservados.“A rapadura é mole, mas não é doce. Pensou que ia ser moleza!” Nada é fácil nesta vida.

6 | | | | | | | | | | | | | | | | | | | |
E |-5-----------3-|-5---7---8---10-|-8------------|---------------|-8-----------8-|
B |---------------|----------------|--------------|---------5---8-|---------------|
G |---------------|----------------|--------------|-----5---------|---------------|
D |---------------|----------------|--------------|---------------|---------------|
A |---------------|----------------|--------------|---------------|---------------|
E |---------------|----------------|--------------|---------------|---------------|>

11 | | | | | | | | | | | | | | | | | | | |
E |-7---5---3-----|--------------|-----3-------3-|-5-----------3-|-5---7---8---10-|
B |-------------6-|-6-------5----|---------5-----|---------------|----------------|
G |---------------|--------------|---------------|---------------|----------------|
D |---------------|--------------|---------------|---------------|----------------|
A |---------------|--------------|---------------|---------------|----------------|
E |---------------|--------------|---------------|---------------|----------------|

16 | | | | | | | | | | | | | | | | | | | |
E |-8------------|---------3----|-3-----------0-|-----5---------|--------------|
B |--------------|--------------|------3--3-----|-6-------8---6-|-6-------5----|
G |--------------|--------------|---------------|---------------|--------------|
D |--------------|--------------|---------------|---------------|--------------|
A |--------------|--------------|---------------|---------------|--------------|
E |--------------|--------------|---------------|---------------|--------------|

21 | | | | | | | | | | | | | | | | | | | |
E |---------------|---------------|-5-------------|--------------|---------0-----|
B |---------5-----|-8-----------5-|-----8---5-----|-8------------|-----8-------8-|
G |-----5-------5-|---------------|-------------5-|--------------|---------------|
D |---------------|---------------|---------------|--------------|---------------|
A |---------------|---------------|---------------|--------------|---------------|
E |---------------|---------------|---------------|--------------|---------------|

26 | | | | | | | | | | | | | | | | | | | |
E |-8-----------8-|-7---5---------|---------0----|---------0-----|-----7---8---10-|
B |---------------|---------8---6-|-6------------|-----8-------8-|-10-------------|
G |---------------|---------------|--------------|---------------|----------------|
D |---------------|---------------|--------------|---------------|----------------|
A |---------------|---------------|--------------|---------------|----------------|
E |---------------|---------------|--------------|---------------|----------------|>

31 | | | | | | | |
E |-12------10---|--------------|
B |--------------|-13-----------|
G |--------------|--------------|
D |--------------|--------------|
A |--------------|--------------|
E |--------------|--------------|.

2-49 SH317 Redenção


Redenção pela cruz
Tom:

1 | | | | | | | | | | | | | | | | | | | |
E |-0---4---4-4-4-|-5-4-4-----0---|---4-5-5-5-5-5-|-7-5-4--------|-4-4-5---5-5---|
B |---7-----------|-------7-7---7-|-7-------------|--------------|---------------|
G |---------------|---------------|---------------|--------------|-------------6-|
D |---------------|---------------|---------------|--------------|---------------|
A |---------------|---------------|---------------|--------------|---------------|
E |---------------|---------------|---------------|--------------|---------------|

6 | | | | | | | | | | | | | | | |
E |-5-5-4---4---0-|-4-4-----------5-|-4---0--------|-0---4---4-4-4-|
B |-----------7---|-----7---7-5-4---|---7----------|---7-----------|
G |---------------|-----------------|--------------|---------------|
D |---------------|-----------------|--------------|---------------|
A |---------------|-----------------|--------------|---------------|
E |---------------|-----------------|--------------|---------------|>

Esta é a página - 78 -
© 2008 by Tablat32 – Cópias somente com autorização

10 | | | | | | | | | | | | | | | | | | | |
E |-5-4-4-----0---|---4-5-5-5-5-5-|-7-5-4--------|-4-4-5---5-5---|-5-5-4---4---0-|
B |-------7-7---7-|-7-------------|--------------|---------------|-----------7---|
G |---------------|---------------|--------------|-------------6-|---------------|
D |---------------|---------------|--------------|---------------|---------------|
A |---------------|---------------|--------------|---------------|---------------|
E |---------------|---------------|--------------|---------------|---------------|>

15 | | | | | | | |
E |-4-4-----------5-|-4---0--------|
B |-----7---7-5-4---|---7----------|
G |-----------------|--------------|
D |-----------------|--------------|
A |-----------------|--------------|
E |-----------------|--------------|.

2-50 SH336 Mais perto da cruz


Tom:
1 | | | | | | | | | | | | | | | | | | | |
E |-8-9-8---6---6-|-6-8-6---4---4-|-4-3-1---1---1-|-4-1----------|-8-9-8----------|
B |---------------|---------------|---------------|--------------|---------11--11-|
G |---------------|---------------|---------------|-----8--------|----------------|
D |---------------|---------------|---------------|--------------|----------------|
A |---------------|---------------|---------------|--------------|----------------|
E |---------------|---------------|---------------|--------------|----------------|>

6 | | | | | | | | | | | | | | | |
E |----8-----------|----8-9---9-----|--------------|-8-9-11------8-|
B |-11---11--9---9-|-11-----------8-|-8---9--------|---------------|
G |----------------|----------------|--------------|---------------|
D |----------------|----------------|--------------|---------------|
A |----------------|----------------|--------------|---------------|
E |----------------|----------------|--------------|---------------|

10 | | | | | | | | | | | | | | | | | | | |
E |-----6-4-3-----|-4-3---------9-|-8------------|-8-9-11------8-|-----6-------9-|
B |-----------6-4-|---------9-----|-----11-------|---------------|-------9-8-6---|
G |---------------|-----10--------|--------------|---------------|---------------|
D |---------------|---------------|--------------|---------------|---------------|
A |---------------|---------------|--------------|---------------|---------------|
E |---------------|---------------|--------------|---------------|---------------|

15 | | | | | | | |
E |-8-6---------8-|--6-----------|
B |-----9---9-----|-----9--------|
G |---------------|--------------|
D |---------------|--------------|
A |---------------|--------------|
E |---------------|--------------|.
2-51 SH337 Maior amor a ti
Tom:

1 | | | | | | | | | | | | | | | | | | | |
E |---------------|-4----6--8----|-8-------6---4-|-6------------|---------------|
B |-4-------6---4-|--------------|---------------|--------------|-4-------6---4-|
G |---------------|--------------|---------------|--------------|---------------|
D |---------------|--------------|---------------|--------------|---------------|
A |---------------|--------------|---------------|--------------|---------------|
E |---------------|--------------|---------------|--------------|---------------|

6 | | | | | | | | | | | | | | | | | | | |
E |-4----6--8----|-6-------4---3-|-4------------|-9-------9---9-|-9----8--8----|
B |--------------|---------------|--------------|---------------|--------------|
G |--------------|---------------|--------------|---------------|--------------|
D |--------------|---------------|--------------|---------------|--------------|
A |--------------|---------------|--------------|---------------|--------------|
E |--------------|---------------|--------------|---------------|--------------|>
Esta é a página - 79 -
© Copyright by Sandro Rogério Martins – Todos os direitos reservados.“A rapadura é mole, mas não é doce. Pensou que ia ser moleza!” Nada é fácil nesta vida.

11 | | | | | | | | | | | | | | | | | | | |
E |-6-------6---6-|-6----4--4----|-1-------1---1-|-4------------|-6-------4---3-|
B |---------------|--------------|---------------|--------------|---------------|
G |---------------|--------------|---------------|--------------|---------------|
D |---------------|--------------|---------------|--------------|---------------|
A |---------------|--------------|---------------|--------------|---------------|
E |---------------|--------------|---------------|--------------|---------------|

16 | | | |
E |-4------------|
B |--------------|
G |--------------|
D |--------------|
A |--------------|
E |--------------|.
3-01 SH338 Mais de Cristo
Tom:

1 | | | | | | | | | | | | | | | | | |
E |-------------4---4-4--|-6---6-6--9--8---8-8--|-11--11-11--9--8---8-8--|
B |-4---4-4--6-----------|----------------------|------------------------|
G |----------------------|----------------------|------------------------|
D |----------------------|----------------------|------------------------|
A |----------------------|----------------------|------------------------|
E |----------------------|----------------------|------------------------|>

4 | | | | | | | | | | | | | | | | | |
E |-6-8-9-8--6--4---3-4--|-8-----------4----4---|-6----6--8-9-8----8---|
B |----------------------|------4--6-4----------|----------------------|
G |----------------------|----------------------|----------------------|
D |----------------------|----------------------|----------------------|
A |----------------------|----------------------|----------------------|
E |----------------------|----------------------|----------------------|>

7 | | | | | | | | | | | |
E |-11-11-11-11--9--8---8-8--|-6-8-9-8--6--4---3-4--|
B |--------------------------|----------------------|
G |--------------------------|----------------------|
D |--------------------------|----------------------|
A |--------------------------|----------------------|
E |--------------------------|----------------------|>
3-02 SH341 Vaso de bênção
Tom:

1 | | | | | | | | | | | | | | | | | |
E |-----6--6--6-5-6-8-----3-|-3-3-5--5-5-5-----6------|-----6--6-6-6-5-6-8-------|
B |-6-6---------------------|--------------8-6--------|-6-6--------------------8-|
G |-------------------------|-------------------------|--------------------------|
D |-------------------------|-------------------------|--------------------------|
A |-------------------------|-------------------------|--------------------------|
E |-------------------------|-------------------------|--------------------------|>

4 | | | | | | | | | | | | | | | | | |
E |-----5--5-5-----5-6------|-------5-6-10-8-6-5---5-|-----5-6---6-6-10-8---8-|
B |-8-8--------6-8----------|--6--8--------------8---|--8------6----------8---|
G |-------------------------|------------------------|------------------------|
D |-------------------------|------------------------|------------------------|
A |-------------------------|------------------------|------------------------|
E |-------------------------|------------------------|------------------------|

7 | | | | | | | | | | | |
E |--10-11-10-8----5--6-8-6---|-----5-6---11-10-8---------|
B |-------------8-----------6-|--8------6---------8-10-11-|
G |---------------------------|---------------------------|
D |---------------------------|---------------------------|
A |---------------------------|---------------------------|
E |---------------------------|---------------------------|>
Esta é a página - 80 -
© 2008 by Tablat32 – Cópias somente com autorização

3-03 SH344 Fala a minha alma


Tom:

1 | | | | | | | | | | | | | | | | | |
E |-6-8-6-3--6--4----4---|-4-6-4----4--3--------|-3-4-3----3-----------|
B |----------------------|-------6--------------|-------4-----6----6---|
G |----------------------|----------------------|----------------------|
D |----------------------|----------------------|----------------------|
A |----------------------|----------------------|----------------------|
E |----------------------|----------------------|----------------------|>

4 | | | | | | | | | | | | | | | | | |
E |---3-4-3-----3--------|-6-8-6-3--6--4----4---|-4-6-4----4--3--------|
B |-6--------6-----------|----------------------|-------6--------------|
G |----------------------|----------------------|----------------------|
D |----------------------|----------------------|----------------------|
A |----------------------|----------------------|----------------------|
E |----------------------|----------------------|----------------------|>

7 | | | | | | | | | | | | | | | | | |
E |-3-4-3----3-----------|---3-4-3--------------|-------10-11--11-10-------|
B |-------4-----6----6---|-6--------6--4--------|-11-13----------------9---|
G |----------------------|----------------------|--------------------------|
D |----------------------|----------------------|--------------------------|
A |----------------------|----------------------|--------------------------|
E |----------------------|----------------------|--------------------------|>

10 | | | | | | | | | | | | | | | | | |
E |------8-10--8-----------|--------8--3--6----4---|---3-4-3-----3--------|
B |-9-11----------11-------|-8-9-11----------------|-6--------6-----------|
G |------------------------|-----------------------|----------------------|
D |------------------------|-----------------------|----------------------|
A |------------------------|-----------------------|----------------------|
E |------------------------|-----------------------|----------------------|>

13 | | | | | | | | | | | | | | | | | |
E |-------10-11--11-10-------|------8-10--8-----------|--------8--------------|
B |-11-13----------------9---|-9-11----------11-------|-8-9-11----8--11---9---|
G |--------------------------|------------------------|-----------------------|
D |--------------------------|------------------------|-----------------------|
A |--------------------------|------------------------|-----------------------|
E |--------------------------|------------------------|-----------------------|>

16 | | | | | |
E |-1-3-4-3--1-----------|
B |----------------------|
G |----------------------|
D |-------------13-------|
A |----------------------|
E |----------------------|.
3-04 SH354 Tempo de ser santo
Tom:

1 | | | | | | | | | | | | | | | | | |
E |-5----5----5-6----5---|----------------------|-5----5----5-6----5---|
B |---------8------------|-6----8--6-5-6--------|---------8------------|
G |----------------------|----------------------|----------------------|
D |----------------------|----------------------|----------------------|
A |----------------------|----------------------|----------------------|
E |----------------------|----------------------|----------------------|>

4 | | | | | | | | | | | | | | | | | |
E |-3----3--3-3-3--------|-6----6--5---5----8---|-6----6--5---5--------|
B |----------------------|-----------8----------|-----------8----------|
G |----------------------|----------------------|----------------------|
D |----------------------|----------------------|----------------------|
A |----------------------|----------------------|----------------------|
E |----------------------|----------------------|----------------------|>
Esta é a página - 81 -
© Copyright by Sandro Rogério Martins – Todos os direitos reservados.“A rapadura é mole, mas não é doce. Pensou que ia ser moleza!” Nada é fácil nesta vida.

7 | | | | | | | | | | | |
E |-8----8--6-5-10---6---|-5---------0----------|
B |----------------------|------8--6------------|
G |----------------------|-------------10-------|
D |----------------------|----------------------|
A |----------------------|----------------------|
E |----------------------|----------------------|.

3-05 SH360
SH360 Mais perto quero estar (1)
Tom:

1 | | | | | | | | | | | | | | | | | | | |
E |-7-------5----3-|-3----0--0----|---------3---7-|-5------------|-7-------5----3-|
B |----------------|--------------|-3-------------|--------------|----------------|
G |----------------|--------------|---------------|--------------|----------------|
D |----------------|--------------|---------------|--------------|----------------|
A |----------------|--------------|---------------|--------------|----------------|
E |----------------|--------------|---------------|--------------|----------------|>

6 | | | | | | | | | | | | | | | | | | | |
E |-3----0--0----|-----3---2---5-|-3------------|-10------12---10-|-10------10---|
B |--------------|-3-------------|--------------|-----------------|------12------|
G |--------------|---------------|--------------|-----------------|--------------|
D |--------------|---------------|--------------|-----------------|--------------|
A |--------------|---------------|--------------|-----------------|--------------|
E |--------------|---------------|--------------|-----------------|--------------|>

11 | | | | | | | | | | | | | | | |
E |-10------12---10-|-10-----------|--------------3-|-3------------|
B |-----------------|------12-10---|-12------10-----|------5--5----|
G |-----------------|--------------|----------------|--------------|
D |-----------------|--------------|----------------|--------------|
A |-----------------|--------------|----------------|--------------|
E |-----------------|--------------|----------------|--------------|>

15 | | | | | | | |
E |-----3---2---5-|--------------|
B |-3-------------|--------------|
G |---------------|-12-----------|
D |---------------|--------------|
A |---------------|--------------|
E |---------------|--------------|.
3-06 SH362 Ao pé da cruz
Tom:

1 | | | | | | | | | | | | | | | | | |
E |-5---6-5--3--1--------|-----1-1--5--5----3---|-5---6-5--3--1----------|
B |-----------------3-3--|-1--------------------|-----------------3-3----|
G |----------------------|----------------------|----------------------3-|
D |----------------------|----------------------|------------------------|
A |----------------------|----------------------|------------------------|
E |----------------------|----------------------|------------------------|>

4 | | | | | | | | | | | | | | | | | |
E |-----1-1--0-----------|-5---8-8-----6---10-10--|-8---10-8--5--5--------|
B |-1-----------8----6---|------------------------|-------------------8---|
G |----------------------|------------------------|-----------------------|
D |----------------------|------------------------|-----------------------|
A |----------------------|------------------------|-----------------------|
E |----------------------|------------------------|-----------------------|>

7 | | | | | | | | | | | |
E |-5---6-5--3--1--------|-----1-1--0-----------|
B |-----------------3-3--|-1--------------------|
G |----------------------|-------------12---10--|
D |----------------------|----------------------|
A |----------------------|----------------------|
E |----------------------|----------------------|>
Esta é a página - 82 -
© 2008 by Tablat32 – Cópias somente com autorização

3-07 SH369 Quero o salvador comigo


Tom:

1 | | | | | | | | | | | | | | | | | |
E |------------|-10-7-------|-7----0----2-|-5-3-2----|-2-3-5------|-10-7-------|
B |-7-8-10---7-|------10--7-|---10--------|----------|----------7-|------10--7-|
G |------------|------------|-------------|----------|------------|------------|
D |------------|------------|-------------|----------|------------|------------|
A |------------|------------|-------------|----------|------------|------------|
E |------------|------------|-------------|----------|------------|------------|>

7 | | | | | | | | | | | | | | | | | |
E |-10-10-9----7-|-5-4-5----|-5-5-5----------|---0----------|-10-9-7--------10-|
B |--------------|----------|--------------8-|-7---7--------|------------------|
G |--------------|----------|----------------|--------------|------------------|
D |--------------|----------|----------------|--------------|------------------|
A |--------------|----------|----------------|--------------|------------------|
E |--------------|----------|----------------|--------------|------------------|>

12 | | | | | | | | | | | | | | | |
E |-9-7----------|-------10---------|------9---7----|---0------2--2-|
B |-----10-------|-10-10----------7-|-8-10----------|-8---3---------|
G |--------------|------------------|---------------|---------------|
D |--------------|------------------|---------------|---------------|
A |--------------|------------------|---------------|---------------|
E |--------------|------------------|---------------|---------------|>

16 | | | |
E |--0-----------|
B |--------------|
G |--------------|
D |-----12-------|
A |--------------|
E |--------------|.

3-08 SH377 Glória glória aleluia


Tom:

1 | | | | | | | | | | | | | | | |
E |-1-1-1-1-1-------|-6-8-10-10-10-8-6-|-6-5-3-3-3-5-6-5-|-6-3-1-3-1---1-|
B |---------------6-|------------------|-----------------|-----------3---|
G |-----------8-7---|------------------|-----------------|---------------|
D |-----------------|------------------|-----------------|---------------|
A |-----------------|------------------|-----------------|---------------|
E |-----------------|------------------|-----------------|---------------|>

5 | | | | | | | | | | | | | | | |
E |-1-1-1-1-1-------|-6-8-10-10-10-8-6-|-6---8---8---6-|-5---6--------|
B |---------------6-|------------------|---------------|--------------|
G |-----------8-7---|------------------|---------------|--------------|
D |-----------------|------------------|---------------|--------------|
A |-----------------|------------------|---------------|--------------|
E |-----------------|------------------|---------------|--------------|>

9 | | | | | | | | | | | | | | | |
E |-----------------|-6-8-10------6-|----------5--6-5-|-6-------------|
B |-----6---------6-|---------------|-----8-----------|---8-6---------|
G |----------8--7---|---------------|-----------------|-------------7-|
D |-----------------|---------------|-----------------|---------------|
A |-----------------|---------------|-----------------|---------------|
E |-----------------|---------------|-----------------|---------------|>

13 | | | | | | | | | | | | | | | |
E |-----------------|-6-8-10------6-|-6---8---8------|--------------|
B |-----6---------6-|---------------|-------------11-|-10--11-------|
G |----------8--7---|---------------|----------------|--------------|
D |-----------------|---------------|----------------|--------------|
A |-----------------|---------------|----------------|--------------|
E |-----------------|---------------|----------------|--------------|.
Esta é a página - 83 -
© Copyright by Sandro Rogério Martins – Todos os direitos reservados.“A rapadura é mole, mas não é doce. Pensou que ia ser moleza!” Nada é fácil nesta vida.

3-09 SH379 Conta as muitas bênçãos


Tom:

1 | | | | | | | | | | | | | | | |
E |-3-3-3-4-|-6-6-6-3-|-4---3-|-4----|---3-4-6-|-10-8-6-4-|-3---4-|-6----|
B |---------|---------|-------|------|-6-------|----------|-------|------|
G |---------|---------|-------|------|---------|----------|-------|------|
D |---------|---------|-------|------|---------|----------|-------|------|
A |---------|---------|-------|------|---------|----------|-------|------|
E |---------|---------|-------|------|---------|----------|-------|------|>

9 | | | | | | | | | | | | | | | |
E |-3-3-3-4-|-6-6-6-3-|-4---3-|-4----|---3-4-6-|-10-8-6-4-|-3-----|------|
B |---------|---------|-------|------|-6-------|----------|-----6-|-4----|
G |---------|---------|-------|------|---------|----------|-------|------|
D |---------|---------|-------|------|---------|----------|-------|------|
A |---------|---------|-------|------|---------|----------|-------|------|
E |---------|---------|-------|------|---------|----------|-------|------|>

17 | | | | | | | | | | | | | | | |
E |---------|-11-------3-|-4---4-|-4----|-4----4-|-10-8-6-4-|-3---4-|------|
B |-11---11-|----11-11---|-------|------|--------|----------|-------|-11---|
G |---------|------------|-------|------|--------|----------|-------|------|
D |---------|------------|-------|------|--------|----------|-------|------|
A |---------|------------|-------|------|--------|----------|-------|------|
E |---------|------------|-------|------|--------|----------|-------|------|>

25 | | | | | | | | | | | | | |
E |-11---11-|-10-----|-10-10-------|------|-11-11-10-11-|-10-------4-|-3-----|
B |---------|----13--|-------13-13-|-11---|-------------|----13-11---|-----6-|
G |---------|--------|-------------|------|-------------|------------|-------|
D |---------|--------|-------------|------|-------------|------------|-------|
A |---------|--------|-------------|------|-------------|------------|-------|
E |---------|--------|-------------|------|-------------|------------|-------|>

32 | |
E |------|
B |------|
G |------|
D |-13---|
A |------|
E |------|.

3-10 SH381 Grata memória


Tom:
1 | | | | | | | | | | | | | | | | | | | |
E |-4-------4---4-|-6-------6----|-8---4---4---6-|-4-------3----|-8-------8---8-|
B |---------------|--------------|---------------|--------------|---------------|
G |---------------|--------------|---------------|--------------|---------------|
D |---------------|--------------|---------------|--------------|---------------|
A |---------------|--------------|---------------|--------------|---------------|
E |---------------|--------------|---------------|--------------|---------------|>

6 | | | | | | | | | | | | | | | | | | | |
E |-8----6--6----|---------6-----|--------------|-8-------------|-9----8-------|
B |--------------|-9---9-------9-|-9-------8----|---------9---9-|---------11---|
G |--------------|---------------|--------------|---------------|--------------|
D |--------------|---------------|--------------|---------------|--------------|
A |--------------|---------------|--------------|---------------|--------------|
E |--------------|---------------|--------------|---------------|--------------|>

11 | | | | | | | | | | | | | | | | | | | |
E |-8---8---------|--------------|-8-------4---6-|-4-------3----|-4------------|
B |---------11--9-|-8------------|---------------|--------------|--------------|
G |---------------|-----10--8----|---------------|--------------|--------------|
D |---------------|--------------|---------------|--------------|--------------|
A |---------------|--------------|---------------|--------------|--------------|
E |---------------|--------------|---------------|--------------|--------------|>

Esta é a página - 84 -
© 2008 by Tablat32 – Cópias somente com autorização

3-11 SH386 Dia feliz


Tom:

1 | | | | | | | | | | | | | | | | | |
E |------------|-7--------|------------|-7--------|-7---8---7-|----------|
B |-----8---10-|----------|-----8---10-|----------|-----------|-10-------|
G |-7----------|----------|-7----------|----------|-----------|----------|
D |------------|----------|------------|----------|-----------|----------|
A |------------|----------|------------|----------|-----------|----------|
E |------------|----------|------------|----------|-----------|----------|>

7 | | | | | | | | | | | | | | | | | |
E |-----7------|----------|------------|-7--------|------------|-7--------|
B |-8-------10-|-8--------|-----8---10-|----------|-----8---10-|----------|
G |------------|----------|-7----------|----------|-7----------|----------|
D |------------|----------|------------|----------|------------|----------|
A |------------|----------|------------|----------|------------|----------|
E |------------|----------|------------|----------|------------|----------|>

13 | | | | | | | | | | | | | | | | | |
E |-7---8---7-|----------|-----7------|----------|-----7----8-|-10-------|
B |-----------|-10-------|-8-------10-|-8--------|------------|----------|
G |-----------|----------|------------|----------|------------|----------|
D |-----------|----------|------------|----------|------------|----------|
A |-----------|----------|------------|----------|------------|----------|
E |-----------|----------|------------|----------|------------|----------|>

19 | | | | | | | | | | | | | | | | | |
E |-------------|-7--------|-7---8---7-|----------|-----7------|----------|
B |-----8----10-|----------|-----------|-10-------|-8-------10-|-8--------|
G |-------------|----------|-----------|----------|------------|----------|
D |-------------|----------|-----------|----------|------------|----------|
A |-------------|----------|-----------|----------|------------|----------|
E |-------------|----------|-----------|----------|------------|----------|>

25 | | | | | | | | | | | | | | | | | |
E |-10--10--10-|-10-------|-10--12--10-|----------|-10--10--10-|-10-------|
B |------------|----------|------------|-12-------|------------|----------|
G |------------|----------|------------|----------|------------|----------|
D |------------|----------|------------|----------|------------|----------|
A |------------|----------|------------|----------|------------|----------|
E |------------|----------|------------|----------|------------|----------|>

31 | | | | | | | | | | | | | | | | | |
E |-10--12--10-|-7--------|-----7----8-|-10-------|-------------|-7--------|
B |------------|----------|------------|----------|-----8----10-|----------|
G |------------|----------|------------|----------|-------------|----------|
D |------------|----------|------------|----------|-------------|----------|
A |------------|----------|------------|----------|-------------|----------|
E |------------|----------|------------|----------|-------------|----------|>

37 | | | | | | | | | | | |
E |-7---8---7-|----------|-----7------|----------|
B |-----------|-10-------|-8-------10-|----------|
G |-----------|----------|------------|-12-------|
D |-----------|----------|------------|----------|
A |-----------|----------|------------|----------|
E |-----------|----------|------------|----------|.
3-12 SH387 O céu com Cristo
Tom:

1 | | | | | | | | | | | | | | | | | | | | |
E |---4--6-8--|-----4-4--|-4-3------|-8-8--4-6--|---4--6-8--|-----4-4--|-4-3------|
B |-4---------|-4-6------|-----6-4--|-----------|-4---------|-4-6------|-----6-4--|
G |-----------|----------|----------|-----------|-----------|----------|----------|
D |-----------|----------|----------|-----------|-----------|----------|----------|
A |-----------|----------|----------|-----------|-----------|----------|----------|
E |-----------|----------|----------|-----------|-----------|----------|----------|>
Esta é a página - 85 -
© Copyright by Sandro Rogério Martins – Todos os direitos reservados.“A rapadura é mole, mas não é doce. Pensou que ia ser moleza!” Nada é fácil nesta vida.

8 | | | | | | | | | | | | | | | | | |
E |-8----------|---9--9-9--|-9-8----8--|-8-8--8-11--|-8-8-4-6--|---4--6-8--|
B |---11--9-9--|-9---------|------9----|------------|----------|-4---------|
G |------------|-----------|-----------|------------|----------|-----------|
D |------------|-----------|-----------|------------|----------|-----------|
A |------------|-----------|-----------|------------|----------|-----------|
E |------------|-----------|-----------|------------|----------|-----------|>

14 | | | | | | | | |
E |-----4-4--|-4-3------|-8-6--4-4--|
B |-4-6------|-----6-4--|-----------|
G |----------|----------|-----------|
D |----------|----------|-----------|
A |----------|----------|-----------|
E |----------|----------|-----------|.
3-13 SH389 Promessa bendita
Tom:

1 | | | | | | | | | | | | | | | | | |
E |---0-2-3-----3----7--5--------10--|-10-12-10-7----------7--5---5--------|
B |-3---------------------8-10-------|----------------8---------8----------|
G |----------------------------------|-------------------------------------|
D |----------------------------------|-------------------------------------|
A |----------------------------------|-------------------------------------|
E |----------------------------------|-------------------------------------|>

3 | | | | | | | | | | | | | | | | | |
E |---0--------------7------------10--|-10-12-10-7-------------7-------------|
B |-----7-8-----8-------10-8-10-------|----------------8----10---10-8--------|
G |-7---------------------------------|--------------------------------------|
D |-----------------------------------|--------------------------------------|
A |-----------------------------------|--------------------------------------|
E |-----------------------------------|--------------------------------------|>

5 | | | | | | | | | | | | | | | | | |
E |-10-10-10-12-----8----8--10-12-10-------|-10-10-10-10-----7----7--5---5----10--|
B |------------------------------------12--|---------------------------8----------|
G |----------------------------------------|--------------------------------------|
D |----------------------------------------|--------------------------------------|
A |----------------------------------------|--------------------------------------|
E |----------------------------------------|--------------------------------------|>

7 | | | | | | | | | | | | | | | | | |
E |---0--------------7------------10--|-10-12-10-7-------------7-------------|
B |-----7-8-----8-------10-8-10-------|----------------8----10---10----------|
G |-7---------------------------------|-----------------------------12-------|
D |-----------------------------------|--------------------------------------|
A |-----------------------------------|--------------------------------------|
E |-----------------------------------|--------------------------------------|.
3-14 SH391 Salvação em Cristo
Tom:

1 | | | | | | | | | | | | | | | | | | | |
E |-----5---5---5-|---5-8---8---8-|-8-5-----------|-----5--------|-----5---5---5-|
B |---6-----------|-6-------------|-----8----8--8-|-6-8----------|---6-----------|
G |-5-------------|---------------|---------------|--------------|-5-------------|
D |---------------|---------------|---------------|--------------|---------------|
A |---------------|---------------|---------------|--------------|---------------|
E |---------------|---------------|---------------|--------------|---------------|>

6 | | | | | | | | | | | | | | | |
E |---5-8---8---8-|-8---------8--8-7-|----7-8--------|-8---8----8--8----|
B |-6-------------|---10-8-----------|-10------------|---------------10-|
G |---------------|------------------|---------------|------------------|
D |---------------|------------------|---------------|------------------|
A |---------------|------------------|---------------|------------------|
E |---------------|------------------|---------------|------------------|>
Esta é a página - 86 -
© 2008 by Tablat32 – Cópias somente com autorização

10 | | | | | | | | | | | | | | | |
E |-10-8-8----6--5-|-----5----5--5-8-|-6-5----------|-------------5-|
B |----------------|-6-8-------------|-----8--------|-----6----6----|
G |----------------|-----------------|--------------|-5-------------|
D |----------------|-----------------|--------------|---------------|
A |----------------|-----------------|--------------|---------------|
E |----------------|-----------------|--------------|---------------|>

14 | | | | | | | | | | | |
E |--5--8-5-6-8-10-|-10--8-5-6-----|-0------------|
B |----------------|-----------8-6-|--------------|
G |----------------|---------------|-----10-------|
D |----------------|---------------|--------------|
A |----------------|---------------|--------------|
E |----------------|---------------|--------------|.
3-15 SH395 Nome precioso
Tom:

1 | | | | | | | | | | | | | | | |
E |-----4---8-6-4-6-|-4------------|-----4---3---4---|--------------|
B |-4---------------|---------4----|-6---------6---6-|-4------------|
G |-----------------|--------------|-----------------|--------------|
D |-----------------|--------------|-----------------|--------------|
A |-----------------|--------------|-----------------|--------------|
E |-----------------|--------------|-----------------|--------------|>

5 | | | | | | | | | | | | | | | |
E |-----6---4-3-4-6-|-8-------4----|-6-------8-6-4-3-|-4-----------4-3-|
B |-4---------------|--------------|-----4-----------|-----------------|
G |-----------------|--------------|-----------------|-----------------|
D |-----------------|--------------|-----------------|-----------------|
A |-----------------|--------------|-----------------|-----------------|
E |-----------------|--------------|-----------------|-----------------|>

9 | | | | | | | | | | | | | | | |
E |-------------4---|-------------4-6-|-8-------4---8-|-6-----------8-6-|
B |-6-------------6-|-4---------------|-----4---------|-----------------|
G |-----------------|-----------------|---------------|-----------------|
D |-----------------|-----------------|---------------|-----------------|
A |-----------------|-----------------|---------------|-----------------|
E |-----------------|-----------------|---------------|-----------------|>

13 | | | | | | | | | | | | | | | |
E |-----------------|---------------6-|-8-------8---6-|--------------|
B |-9-----------9-8-|-6-------9---9---|-----9---------|-9------------|
G |-----------------|-----------------|---------------|--------------|
D |-----------------|-----------------|---------------|--------------|
A |-----------------|-----------------|---------------|--------------|
E |-----------------|-----------------|---------------|--------------|.
3-16 SH400 Deus buscou-
buscou-me
Tom:

1 | | | | | | | | | | | | | | | | | |
E |-----7---7-|-7-7-8---8-|-8-8-10------|-7-8-7----|---------0-|---0-0-----|
B |---8-------|-----------|----------10-|----------|-8-7-7-----|-8---------|
G |-7---------|-----------|-------------|----------|-----------|---------7-|
D |-----------|-----------|-------------|----------|-----------|-----------|
A |-----------|-----------|-------------|----------|-----------|-----------|
E |-----------|-----------|-------------|----------|-----------|-----------|>

7 | | | | | | | | | | | | | | | | | |
E |---7-10---8-|-----------|-7-8-10--10-|-12-7-8---8-|----7-8----9-|-10----7----|
B |-8----------|-7-10-8----|------------|------------|-10----------|----10------|
G |------------|-----------|------------|------------|-------------|------------|
D |------------|-----------|------------|------------|-------------|------------|
A |------------|-----------|------------|------------|-------------|------------|
E |------------|-----------|------------|------------|-------------|------------|>
Esta é a página - 87 -
© Copyright by Sandro Rogério Martins – Todos os direitos reservados.“A rapadura é mole, mas não é doce. Pensou que ia ser moleza!” Nada é fácil nesta vida.

13 | | | | | | | | | | | |
E |-7-----------|-7-10-10--8-|-7-5-3----3-|-3-2-3----|
B |---10-8----8-|------------|------------|----------|
G |-------------|------------|------------|----------|
D |-------------|------------|------------|----------|
A |-------------|------------|------------|----------|
E |-------------|------------|------------|----------|.

3-17 SH409 Segurança bendita


Tom:

1 | | | | | | | | | | | | | | | | | |
E |---0---5-----5-------5-7-5--------|-5---5-10-----9----7--5-4-5--------|
B |-7----------------8---------------|---7-------------------------------|
G |-----7----------------------------|-----------------------------------|
D |----------------------------------|-----------------------------------|
A |----------------------------------|-----------------------------------|
E |----------------------------------|-----------------------------------|>

3 | | | | | | | | | | | | | | | | | |
E |---0---5-----5----3--5-7-5--------|---0-2-3-----0-------0------------|
B |-7---3----------------------------|-3----------------3----2-3--------|
G |----------------------------------|----------------------------------|
D |----------------------------------|----------------------------------|
A |----------------------------------|----------------------------------|
E |----------------------------------|----------------------------------|>

5 | | | | | | | | | | | | | | | | | |
E |-5-5-5-10-----5----7--7-7-5--------|-5-5-5-7-----10---9--9-7-9--------|
B |-----------------------------------|----------------------------------|
G |-----------------------------------|----------------------------------|
D |-----------------------------------|----------------------------------|
A |-----------------------------------|----------------------------------|
E |-----------------------------------|----------------------------------|>

7 | | | | | | | | | | | | | | | | | |
E |-9-10-12-10----------7-----7----------|---0-2-3-----0-------0------------|
B |----------------10------10---10-------|------------------3----2-3--------|
G |--------------------------------------|-7--------------------------------|
D |--------------------------------------|----------------------------------|
A |--------------------------------------|----------------------------------|
E |--------------------------------------|----------------------------------|.

3-18 SH412 Confiança


Tom:

1 | | | | | | | | | | | | | | | |
E |-----3----3--4-3-|-----8---6---6-|-----6----6--8-6-|-4-3----------|
B |-4---------------|-6-4-----------|-8---------------|-----6--------|
G |-----------------|---------------|-----------------|--------------|
D |-----------------|---------------|-----------------|--------------|
A |-----------------|---------------|-----------------|--------------|
E |-----------------|---------------|-----------------|--------------|>

5 | | | | | | | | | | | | | | | |
E |-4---3----3--4-3-|-----8---6---6-|-----6----6--8-6-|--------------|
B |-----------------|-6-4-----------|-8---------------|-9-6----------|
G |-----------------|---------------|-----------------|-----8--------|
D |-----------------|---------------|-----------------|--------------|
A |-----------------|---------------|-----------------|--------------|
E |-----------------|---------------|-----------------|--------------|>

9 | | | | | | | | | | | | | | | |
E |-----11--11---11-|-10-8-8---6----6-|-8-6-6---4----4-|-6-4-4---3----|
B |-----------------|-----------------|----------------|--------------|
G |-8-8-------------|-----------------|----------------|--------------|
D |-----------------|-----------------|----------------|--------------|
A |-----------------|-----------------|----------------|--------------|
E |-----------------|-----------------|----------------|--------------|>>
Esta é a página - 88 -
© 2008 by Tablat32 – Cópias somente com autorização

13 | | | | | | | | | | | | | | | |
E |-----11-------11-|-10-------------|-----10------10-10-|-----11-------|
B |-4-4-------------|----13-13--11---|-11-------13-------|-11-----------|
G |-----------------|----------------|-------------------|--------------|
D |-----------------|----------------|-------------------|--------------|
A |-----------------|----------------|-------------------|--------------|
E |-----------------|----------------|-------------------|--------------|.

3-19 SH423 Segurança do crente


Tom:

1 | | | | | | | | | | | | | | | | | |
E |---0-2-3-----3----3--5-7----------|-------5-----5----5----5-7--------|
B |-3-----------------------5----5---|-5-7-8---------------8------------|
G |----------------------------------|----------------------------------|
D |----------------------------------|----------------------------------|
A |----------------------------------|----------------------------------|
E |----------------------------------|----------------------------------|>

3 | | | | | | | | | | | | | | | | | |
E |-7-5-7-8-----8----8--10-12-12---10--|-10-8-7-5-----5----5--7-9-10-------|
B |------------------------------------|-----------------------------------|
G |------------------------------------|-----------------------------------|
D |------------------------------------|-----------------------------------|
A |------------------------------------|-----------------------------------|
E |------------------------------------|-----------------------------------|>

5 | | | | | | | | | | | | | | | | | |
E |-10-8-7-7-----5----5--7-8-8----7---|-7----7-10-----7----7--5---5--------|
B |-----------------------------------|---10--------------------8----------|
G |-----------------------------------|------------------------------------|
D |-----------------------------------|------------------------------------|
A |-----------------------------------|------------------------------------|
E |-----------------------------------|------------------------------------|>

7 | | | | | | | | | | | | | | | | | |
E |---0--------------------7-8----12--|-12-10-8-7-----10---8--7-------------|
B |-----7-8-----8----8--10------------|-------------------------10----------|
G |-7---------------------------------|----------------------------12-------|
D |-----------------------------------|-------------------------------------|
A |-----------------------------------|-------------------------------------|
E |-----------------------------------|-------------------------------------|.

3-20 SH428
SH428 Redentor
Redentor Onipotente (1)
Tom:

1 | | | | | | | | | | | | | | | |
E |-5----4--5-----|-8----7--8------|-----------6-5---|--------------|
B |-------------6-|-------------10-|-8----7--8-----8-|-6------------|
G |---------------|----------------|-----------------|--------------|
D |---------------|----------------|-----------------|--------------|
A |---------------|----------------|-----------------|--------------|
E |---------------|----------------|-----------------|--------------|>

5 | | | | | | | | | | | | | | | |
E |-5----4--5-----|-8----7--8------|-----------6-5---|--------------|
B |-------------6-|-------------10-|-8----7--8-----8-|-6------------|
G |---------------|----------------|-----------------|--------------|
D |---------------|----------------|-----------------|--------------|
A |---------------|----------------|-----------------|--------------|
E |---------------|----------------|-----------------|--------------|>

9 | | | | | | | | | | | | | | | |
E |-6----5--6-----|-5----4--5-----|-10---8--6-5-----|---------8---6-|
B |-------------8-|-------------6-|-------------8-6-|-5-------------|
G |---------------|---------------|-----------------|---------------|
D |---------------|---------------|-----------------|---------------|
A |---------------|---------------|-----------------|---------------|
E |---------------|---------------|-----------------|---------------|>>
Esta é a página - 89 -
© Copyright by Sandro Rogério Martins – Todos os direitos reservados.“A rapadura é mole, mas não é doce. Pensou que ia ser moleza!” Nada é fácil nesta vida.

13 | | | | | | | | | | | | | | | |
E |-5----4--5-----|-8----7--8---5-|-3----2--3-6-5-3-|--------------|
B |-------------6-|---------------|-----------------|--------------|
G |---------------|---------------|-----------------|-10-----------|
D |---------------|---------------|-----------------|--------------|
A |---------------|---------------|-----------------|--------------|
E |---------------|---------------|-----------------|--------------|.

3-21 SH433 A excêlencia do amor


Tom: Staff

1 | | | | | | | | | | | | | | | |
E |---2------------|-10-9-----10-----|----------3--2-|-----3----2----|
B |-3---10--10--10-|------12------10-|-----10--------|-------------5-|
G |----------------|-----------------|---------------|---------------|
D |----------------|-----------------|---------------|---------------|
A |----------------|-----------------|---------------|---------------|
E |----------------|-----------------|---------------|---------------|>

5 | | | | | | | | | | | | | | | |
E |---2------------|-10-9-----10-----|-------------7-|-----9----9--10-|
B |-3---10--10--10-|------12------10-|-----10---10---|----------------|
G |----------------|-----------------|---------------|----------------|
D |----------------|-----------------|---------------|----------------|
A |----------------|-----------------|---------------|----------------|
E |----------------|-----------------|---------------|----------------|>

9 | | | | | | | | | | | | | | | |
E |-10-9-7---7---7-|-9-7-5-------5-|-7-5-3---3---3-|-5-3-2-------2-|
B |----------------|---------------|---------------|---------------|
G |----------------|---------------|---------------|---------------|
D |----------------|---------------|---------------|---------------|
A |----------------|---------------|---------------|---------------|
E |----------------|---------------|---------------|---------------|>

13 | | | | | | | | | | | | | | | |
E |---2------------|-10-9-----10-----|----------------|----------------|
B |-3---10--10--10-|------12------10-|-------------10-|--10-12------14-|
G |----------------|-----------------|----------------|----------------|
D |----------------|-----------------|----------------|----------------|
A |----------------|-----------------|----------------|----------------|
E |----------------|-----------------|----------------|----------------|>

17 | | | |
E |--------------|
B |-----15-------|
G |--------------|
D |--------------|
A |--------------|
E |--------------|.
3-22 SH435 Fidelidade
Tom:

1 | | | | | | | | | | | | | | | | | |
E |-5---5-----|-6---6-5-5-|-8---8----5-|---5------|-5---6-8-10-|--10-10-8-8-|
B |-------8-8-|-----------|------------|-6---8----|------------|------------|
G |-----------|-----------|------------|----------|------------|------------|
D |-----------|-----------|------------|----------|------------|------------|
A |-----------|-----------|------------|----------|------------|------------|
E |-----------|-----------|------------|----------|------------|------------|>

7 | | | | | | | | | | | | | | | | | |
E |-8---8----8-|-6--------|-5---5-----|-6---6-5-5-|-8---8----5-|---5------|
B |------------|---8-6----|-------8-8-|-----------|------------|-6---8----|
G |------------|----------|-----------|-----------|------------|----------|
D |------------|----------|-----------|-----------|------------|----------|
A |------------|----------|-----------|-----------|------------|----------|
E |------------|----------|-----------|-----------|------------|----------|>
Esta é a página - 90 -
© 2008 by Tablat32 – Cópias somente com autorização

13 | | | | | | | | | | | |
E |-5---6-8-10-|--10-10-8-8-|-8---8----8-|------------|
B |------------|------------|------------|-11---------|
G |------------|------------|------------|----12-10---|
D |------------|------------|------------|------------|
A |------------|------------|------------|------------|
E |------------|------------|------------|------------|.

3-23 SH438 Alvo mais que a neve


Tom:

1 | | | | | | | | | | | | | | | |
E |-2---2-1-2---2-3-|-5-------5---5---|-0---0-----------|-0------------|
B |-----------------|---------------7-|---------7---8-7-|--------------|
G |-----------------|-----------------|-----------------|--------------|
D |-----------------|-----------------|-----------------|--------------|
A |-----------------|-----------------|-----------------|--------------|
E |-----------------|-----------------|-----------------|--------------|>

5 | | | | | | | | | | | | | | | |
E |-2---2-1-2---2-3-|-5-------5---5---|-0---0-0-0-----0-|--------------|
B |-----------------|---------------7-|-------------7---|--------------|
G |-----------------|-----------------|-----------------|-7------------|
D |-----------------|-----------------|-----------------|--------------|
A |-----------------|-----------------|-----------------|--------------|
E |-----------------|-----------------|-----------------|--------------|>

9 | | | | | | | | | | | | | | | |
E |-7---7-7-7---7---|--------------|-7---7-7-7-10-9-7-|-5-------3----|
B |---------------8-|-7-------10---|------------------|--------------|
G |-----------------|--------------|------------------|--------------|
D |-----------------|--------------|------------------|--------------|
A |-----------------|--------------|------------------|--------------|
E |-----------------|--------------|------------------|--------------|>

13 | | | | | | | | | | | | | | | |
E |-2---2-1-2---2-3-|-5-------5-------|-0---0-0-0-----0-|--------------|
B |-----------------|-------------7-7-|-------------7---|-3------------|
G |-----------------|-----------------|-----------------|--------------|
D |-----------------|-----------------|-----------------|--------------|
A |-----------------|-----------------|-----------------|--------------|
E |-----------------|-----------------|-----------------|--------------|>

17 | | | | | | | | | | | | | | | |
E |----------------10-|-9-------9----|---------------7-|--------------|
B |-10----------10----|--------------|-8-----------8---|-10------10---|
G |----------11-------|--------------|----------9------|--------------|
D |-------------------|--------------|-----------------|--------------|
A |-------------------|--------------|-----------------|--------------|
E |-------------------|--------------|-----------------|--------------|>

21 | | | | | | | | | | | | | | | |
E |-10--10-10-10--10-9-|-7-----------7-|---------0-----0-|--------------|
B |--------------------|---------8-----|-10--7-------7---|--------------|
G |--------------------|---------------|-------7---------|--------------|
D |--------------------|---------------|-----------------|-12-----------|
A |--------------------|---------------|-----------------|--------------|
E |--------------------|---------------|-----------------|--------------|.
3-24 SH439 Crer e observar
Tom:

1 | | | | | | | | | | | | | | | | | |
E |-----5---5-|----------|---5-8---8-|-6---5----|-5-5-6---10-|-6---5---8-|
B |-6-8-------|-8---6----|-6---------|----------|------------|-----------|
G |-----------|----------|-----------|----------|------------|-----------|
D |-----------|----------|-----------|----------|------------|-----------|
A |-----------|----------|-----------|----------|------------|-----------|
E |-----------|----------|-----------|----------|------------|-----------|>>

Esta é a página - 91 -
© Copyright by Sandro Rogério Martins – Todos os direitos reservados.“A rapadura é mole, mas não é doce. Pensou que ia ser moleza!” Nada é fácil nesta vida.

7 | | | | | | | | | | | | | | | | | |
E |-5--------|-----5---5-|----------|---5-8---8-|-6---5----|-5-5-6---10-|
B |-----8----|-6-8-------|-8---6----|-6---------|----------|------------|
G |----------|-----------|----------|-----------|----------|------------|
D |----------|-----------|----------|-----------|----------|------------|
A |----------|-----------|----------|-----------|----------|------------|
E |----------|-----------|----------|-----------|----------|------------|>

13 | | | | | | | | | | | | | | | | | |
E |-6---5-----|----------|-----8-----|-8---5----|-5-5-10--5-|-8---6----|
B |---------6-|-8---6----|---------8-|----------|-----------|----------|
G |-----------|----------|-----------|----------|-----------|----------|
D |-----------|----------|-----------|----------|-----------|----------|
A |-----------|----------|-----------|----------|-----------|----------|
E |-----------|----------|-----------|----------|-----------|----------|>

19 | | | | | | | | | | | |
E |-6-6-6---5-|-----5---8-|-----5-----|----------|
B |-----------|-8---------|-6-8-----6-|-8--------|
G |-----------|-----------|-----------|-----10---|
D |-----------|-----------|-----------|----------|
A |-----------|-----------|-----------|----------|
E |-----------|-----------|-----------|----------|.
3-25 SH440 Servico do crente
Tom:

1 | | | | | | | | | | | | | | | | | | | |
E |-3-4-6---6-6-6-|-----3---3-3-3-|---3-4---4-3-4-|-3-4-8---6-5-6-|-3-4-6---6-6-6-|
B |---------------|-4-6-----------|-6-------------|---------------|---------------|
G |---------------|---------------|---------------|---------------|---------------|
D |---------------|---------------|---------------|---------------|---------------|
A |---------------|---------------|---------------|---------------|---------------|
E |---------------|---------------|---------------|---------------|---------------|>

6 | | | | | | | | | | | | | | | | | | | |
E |-----3---3-3-3-|-3-3-----6-6-5-|-6-8-10--10-8-6-|-3-4----------|-11-3----------|
B |-4-6-----------|-----6---------|----------------|-----11-------|------6--------|
G |---------------|---------------|----------------|--------------|---------------|
D |---------------|---------------|----------------|--------------|---------------|
A |---------------|---------------|----------------|--------------|---------------|
E |---------------|---------------|----------------|--------------|---------------|>

11 | | | | | | | | | | | | | | | |
E |---3-4--------|-6-4-3--------|-3-4-6---6---6-|-11-10-8---8---8-|
B |-6------------|--------------|---------------|-----------------|
G |--------------|--------------|---------------|-----------------|
D |--------------|--------------|---------------|-----------------|
A |--------------|--------------|---------------|-----------------|
E |--------------|--------------|---------------|-----------------|>

15 | | | | | | | |
E |-10--11-6-8-4-3-|--------------|
B |----------------|-6------------|
G |----------------|--------------|
D |----------------|-----13-------|
A |----------------|--------------|
E |----------------|--------------|.

Esta é a página - 92 -
© 2008 by Tablat32 – Cópias somente com autorização

3-26 SH443 Avante o crentes


crentes (1)
Tom:

1 | | | | | | | | | | | | | | | |
E |-----6----6--10-|-6---6---------|-6-------6---8-|-10--8--------|
B |-6--------------|-------------8-|-----6---------|--------------|
G |----------------|---------------|---------------|--------------|
D |----------------|---------------|---------------|--------------|
A |----------------|---------------|---------------|--------------|
E |----------------|---------------|---------------|--------------|>

5 | | | | | | | | | | | | | | | |
E |-----6----6--10-|-6---6---------|-6-------6---10-|-8---6--------|
B |-6--------------|-------------8-|-----6----------|--------------|
G |----------------|---------------|----------------|--------------|
D |----------------|---------------|----------------|--------------|
A |----------------|---------------|----------------|--------------|
E |----------------|---------------|----------------|--------------|>

9 | | | | | | | | | | | | | | | |
E |-----8----8--6-|-8---10------10-|-10--11--10----|-8---6-------5-|
B |-6-------------|----------------|-------------8-|---------------|
G |---------------|----------------|---------------|---------------|
D |---------------|----------------|---------------|---------------|
A |---------------|----------------|---------------|---------------|
E |---------------|----------------|---------------|---------------|>

13 | | | | | | | | | | | | | | | |
E |-----6----6--10-|-6---6---------|-6-------6---10-|--------------|
B |-6--------------|-------------8-|-----6----------|-13--11-------|
G |----------------|---------------|----------------|--------------|
D |----------------|---------------|----------------|--------------|
A |----------------|---------------|----------------|--------------|
E |----------------|---------------|----------------|--------------|.

3-27 SH455 Igreja alerta


Tom:

1 | | | | | | | | | | | | | | | |
E |---8-------8--|---8--0-------5------|----------5-7--|-8-10--9-10--12-10--|
B |-8-------8----|-8----------8----8-5-|----8----------|--------------------|
G |--------------|--------10-----------|--5------------|--------------------|
D |--------------|---------------------|---------------|--------------------|
A |--------------|---------------------|---------------|--------------------|
E |--------------|---------------------|---------------|--------------------|

5 | | | | | | | | | | | | | | | |
E |---8-------8--|---8--0-------5------|----5--4-5--7-8--7-8-|--10-12--10--8---|
B |-8-------8----|-8----------8----8-5-|---------------------|-----------------|
G |--------------|--------10-----------|--5------------------|-----------------|
D |--------------|---------------------|---------------------|-----------------|
A |--------------|---------------------|---------------------|-----------------|
E |--------------|---------------------|---------------------|-----------------|>

9 | | | | | | | | | | | | | | | |
E |--------------12-|--8--------0---|----------------7-|--5-------5--------|
B |-8-8-------------|----8----------|-6-6----------6---|----8-------8--6-5-|
G |----------9------|---------------|----------7-------|-------------------|
D |-----------------|---------------|------------------|-------------------|
A |-----------------|---------------|------------------|-------------------|
E |-----------------|---------------|------------------|-------------------|>

13 | | | | | | | | | | | | | | | |
E |-----------0---12-|--8------------8-|--7------7--8-10--8-7-|----------------|
B |--6-8-------------|----8------------|------10--------------|--10-8----------|
G |------------------|-----------9-----|----------------------|----------------|
D |------------------|-----------------|----------------------|----------------|
A |------------------|-----------------|----------------------|----------------|
E |------------------|-----------------|----------------------|----------------|>>
Esta é a página - 93 -
© Copyright by Sandro Rogério Martins – Todos os direitos reservados.“A rapadura é mole, mas não é doce. Pensou que ia ser moleza!” Nada é fácil nesta vida.

17 | | | | | | | | | | | |
E |--13-----10-7-------|--7-8--7-8--10-12--|--13-----10-7-------|
B |---------------8-10-|-------------------|---------------8-10-|
G |--------------------|-------------------|--------------------|
D |--------------------|-------------------|--------------------|
A |--------------------|-------------------|--------------------|
E |--------------------|-------------------|--------------------|>

20 | | | | | | | | | | | |
E |--7-8--7-8--10-12--|--5---4-5--7-8--7-5-|--7---6-7--8-10--8-7-|
B |-------------------|--------------------|---------------------|
G |-------------------|--------------------|---------------------|
D |-------------------|--------------------|---------------------|
A |-------------------|--------------------|---------------------|
E |-------------------|--------------------|---------------------|>

23 | | | | | | | |
E |--5---4-5--7-8--7-8-|--10-12--10------|
B |--------------------|-------------13--|
G |--------------------|-----------------|
D |--------------------|-----------------|
A |--------------------|-----------------|
E |--------------------|-----------------|.
3-28 SH456 Quem irá
Tom:

1 | | | | | | | | | | | | | | | |
E |-9------2-0------|-0-2-4-5-9---7-|-7---7-6-7----7-|-9-5-5--------|
B |-----10--------2-|---------------|----------------|-------7-5----|
G |-----------------|---------------|----------------|--------------|
D |-----------------|---------------|----------------|--------------|
A |-----------------|---------------|----------------|--------------|
E |-----------------|---------------|----------------|--------------|>

5 | | | | | | | | | | | | | | | |
E |-9---5----------|-----4-5-9---7-|-10--9-7-9-5-5---|-----4---5----|
B |-------7-5------|-5-7-----------|---------------7-|-5------------|
G |--------------6-|---------------|-----------------|--------------|
D |----------------|---------------|-----------------|--------------|
A |----------------|---------------|-----------------|--------------|
E |----------------|---------------|-----------------|--------------|>

9 | | | | | | | | | | | | | | | | | | | |
E |---------5---4-|-4-2-2-2-2----|-2-------7---5-|-5-4-4-4-4----|-------4-5-5-5-9-|
B |-5-------------|--------------|---------------|--------------|-5-5-7-----------|
G |---------------|--------------|---------------|--------------|-----------------|
D |---------------|--------------|---------------|--------------|-----------------|
A |---------------|--------------|---------------|--------------|-----------------|
E |---------------|--------------|---------------|--------------|-----------------|>

14 | | | | | | | | | | | |
E |-9---7---10--9-|-12--10-7-------|-7------------|
B |---------------|----------10--9-|---------10---|
G |---------------|----------------|--------------|
D |---------------|----------------|--------------|
A |---------------|----------------|--------------|
E |---------------|----------------|--------------|.
3-29 SH466 O pendao real
Tom:

1 | | | | | | | | | | | | | | | | | | | |
E |---------------|-4-------------|-4---3---6-----|-3---4--------|---------------|
B |-----4---4---4-|---------4-6-4-|-------------6-|--------------|-----4---4---4-|
G |-5-6-----------|-----5-6-------|---------------|--------------|-5-6-----------|
D |---------------|---------------|---------------|--------------|---------------|
A |---------------|---------------|---------------|--------------|---------------|
E |---------------|---------------|---------------|--------------|---------------|>>
Esta é a página - 94 -
© 2008 by Tablat32 – Cópias somente com autorização

6 | | | | | | | | | | | | | | | | | | | |
E |-4-------------|-4---3---6-----|-6------------|--------------|-8-------------|
B |---------4-6-4-|-------------6-|--------------|---8-11-------|---11-9--------|
G |-----5-6-------|---------------|-----8--------|-8------------|---------------|
D |---------------|---------------|--------------|--------------|---------------|
A |---------------|---------------|--------------|--------------|---------------|
E |---------------|---------------|--------------|--------------|---------------|>

11 | | | | | | | | | | | | | | | |
E |-----9---9---8----|---8----------|---------8---11-|-------------9-|
B |-9-------------11-|-9---11-------|-----9----------|---------9-----|
G |------------------|--------------|-8--------------|--8--10--------|
D |------------------|--------------|----------------|---------------|
A |------------------|--------------|----------------|---------------|
E |------------------|--------------|----------------|---------------|>

15 | | | | | | | |
E |-----8---8---8---|----------------|
B |---------------9-|-11-11----------|
G |-----------------|-------13-------|
D |-----------------|----------------|
A |-----------------|----------------|
E |-----------------|----------------|.
3-30 SH475 Acordai
Tom:

1 | | | | | | | | | | | | | | | |
E |-3-5-7-------3-|-7---7-5-5-4-5-|-5-7-8----------|-8---8-7-7----7-|
B |---------3-----|---------------|-------------10-|-----------10---|
G |---------------|---------------|---------7------|----------------|
D |---------------|---------------|----------------|----------------|
A |---------------|---------------|----------------|----------------|
E |---------------|---------------|----------------|----------------|>

5 | | | | | | | | | | | | | | | | | | | |
E |------7---------|-7---7-5-5-4-5-|-4-------3---2-|---2-3--------|-3-5-7-------3-|
B |-8-10---------8-|---------------|---5-3---------|-5------------|---------3-----|
G |----------7-----|---------------|---------------|--------------|---------------|
D |----------------|---------------|---------------|--------------|---------------|
A |----------------|---------------|---------------|--------------|---------------|
E |----------------|---------------|---------------|--------------|---------------|>

10 | | | | | | | | | | | | | | | |
E |-7---7-5-5-4-5-|-5-7-8----------|-8---8-7-7----7-|------7---------|
B |---------------|-------------10-|-----------10---|-8-10---------8-|
G |---------------|---------7------|----------------|----------7-----|
D |---------------|----------------|----------------|----------------|
A |---------------|----------------|----------------|----------------|
E |---------------|----------------|----------------|----------------|>

14 | | | | | | | | | | | | | | | | | | | |
E |-7---7-5-5-4-5-|-4-------3---2-|-0------------|-7-8-10-------|-7-8-10-------|
B |---------------|---5-3---------|---7-8--------|--------------|--------------|
G |---------------|---------------|--------------|--------------|--------------|
D |---------------|---------------|--------------|--------------|--------------|
A |---------------|---------------|--------------|--------------|--------------|
E |---------------|---------------|--------------|--------------|--------------|>

19 | | | | | | | | | | | | | | | | | | | |
E |-8-7-8--------|-7----7--------|-7-8-10-------|-7-8-10-------|-7-7-----10--9-|
B |--------------|---10----------|--------------|--------------|-----10--------|
G |--------------|---------------|--------------|--------------|---------------|
D |--------------|---------------|--------------|--------------|---------------|
A |--------------|---------------|--------------|--------------|---------------|
E |--------------|---------------|--------------|--------------|---------------|>
Esta é a página - 95 -
© Copyright by Sandro Rogério Martins – Todos os direitos reservados.“A rapadura é mole, mas não é doce. Pensou que ia ser moleza!” Nada é fácil nesta vida.

24 | | | | | | | | | | | | | | | |
E |-12--10-------|------7---------|-7---7------------|----7-8----------|
B |--------------|-8-10---------8-|-------10-10-9-10-|-10-----------10-|
G |--------------|----------7-----|------------------|----------7------|
D |--------------|----------------|------------------|-----------------|
A |--------------|----------------|------------------|-----------------|
E |--------------|----------------|------------------|-----------------|>

28 | | | | | | | | | | | | | | | |
E |-8---8-7-7----7-|------7---------|-7---7-5-5-4-5-|-4-------3---2-|
B |-----------10---|-8-10---------8-|---------------|---5-3---------|
G |----------------|----------7-----|---------------|---------------|
D |----------------|----------------|---------------|---------------|
A |----------------|----------------|---------------|---------------|
E |----------------|----------------|---------------|---------------|>

32 | | | |
E |-0-------------|
B |---------------|
G |---11-12-------|
D |---------------|
A |---------------|
E |---------------|.
3-31 SH485 O júbilo dos anjos
Tom:

1 | | | | | | | | | | | | | | | | | | | |
E |---------8---4-|-6-4---3-4----|-3-4-6-4-8-6-9-3-|-4------------|---------8---4-|
B |-4-4-6-4-------|-----6--------|-----------------|--------------|-4-4-6-4-------|
G |---------------|--------------|-----------------|--------------|---------------|
D |---------------|--------------|-----------------|--------------|---------------|
A |---------------|--------------|-----------------|--------------|---------------|
E |---------------|--------------|-----------------|--------------|---------------|>

6 | | | | | | | | | | | | | | | |
E |-6-4---3-4----|-3-4-6-4-8----9---|--------------|-8---8---11-9------|
B |-----6--------|-----------11---8-|-9------------|--------------11-8-|
G |--------------|------------------|--------------|-------------------|
D |--------------|------------------|--------------|-------------------|
A |--------------|------------------|--------------|-------------------|
E |--------------|------------------|--------------|-------------------|>

10 | | | | | | | | | | | | | | | | | | | |
E |---------8----|---------6-8-6-4-|-3------------|---------8---4-|-6-4---3-4----|
B |-9---9--------|-6---6-----------|-----6---4----|-4-4-6-4-------|-----6--------|
G |--------------|-----------------|--------------|---------------|--------------|
D |--------------|-----------------|--------------|---------------|--------------|
A |--------------|-----------------|--------------|---------------|--------------|
E |--------------|-----------------|--------------|---------------|--------------|>

15 | | | | | | | |
E |-3-4-6-4-8-6-9----|--------------|
B |------------------|--------------|
G |---------------12-|-13-----------|
D |------------------|--------------|
A |------------------|--------------|
E |------------------|--------------|.
3-32 SH486 Vigiar e Orar
Tom:

1 | | | | | | | | | | | | | | | | | | | |
E |-----5-------8-|---------0-----|-----5---------|--------------|-----10--8---7-|
B |-8-------8-----|-------------8-|-8--------8--8-|-----6--------|-6-------------|
G |---------------|---------------|---------------|--------------|---------------|
D |---------------|---------------|---------------|--------------|---------------|
A |---------------|---------------|---------------|--------------|---------------|
E |---------------|---------------|---------------|--------------|---------------|>
Esta é a página - 96 -
© 2008 by Tablat32 – Cópias somente com autorização

6 | | | | | | | | | | | | | | | | | | | |
E |-----5---------|-5-----------0-|--------------|-------------8-|-----8-------7-|
B |-------------8-|-----6---8-----|--------------|-8---10--8-----|---------------|
G |---------------|---------------|--------------|---------------|---------------|
D |---------------|---------------|--------------|---------------|---------------|
A |---------------|---------------|--------------|---------------|---------------|
E |---------------|---------------|--------------|---------------|---------------|>

11 | | | | | | | | | | | | | | | | | | | |
E |-8---10--8---7-|--------------|-----10--8---7-|---------------|-----5---------|
B |---------------|-----10-------|-10------------|---------8---7-|-------------8-|
G |---------------|--------------|---------------|---------------|---------------|
D |---------------|--------------|---------------|---------------|---------------|
A |---------------|--------------|---------------|---------------|---------------|
E |---------------|--------------|---------------|---------------|---------------|>

16 | | | | | | | | | | | | | | | | | | | |
E |--------------|-0--------5----|--------------|-0---8----10-8-|--------------|
B |--------------|-----8-------8-|--------------|---------------|--------------|
G |--------------|---------------|--------------|---------------|--------------|
D |--------------|---------------|--------------|---------------|--------------|
A |--------------|---------------|--------------|---------------|--------------|
E |--------------|---------------|--------------|---------------|--------------|>

21 | | | | | | | | | | | | | | | |
E |-----7---5---3-|--------------|----------------|--------------|
B |---------------|-----15-------|-----12------13-|--------------|
G |---------------|--------------|----------------|--------------|
D |---------------|--------------|----------------|--------------|
A |---------------|--------------|----------------|--------------|
E |---------------|--------------|----------------|--------------|.

3-33 SH488 Hora bendita


Tom:
1 | | | | | | | | | | | | | | | | | |
E |---2--3--5---5-7--9--10-|-7-5--2--2-0---0--2--0-|---2--3--5---5-7--9--10-|
B |-3----------------------|-------------3---------|-3----------------------|
G |------------------------|-----------------------|------------------------|
D |------------------------|-----------------------|------------------------|
A |------------------------|-----------------------|------------------------|
E |------------------------|-----------------------|------------------------|>

4 | | | | | | | | | | | |
E |-7-5--2--2-0---2--0----|----10--9--10---------------|
B |-------------3-------3-|-10------------12-10-----10-|
G |-----------------------|----------------------11----|
D |-----------------------|----------------------------|
A |-----------------------|----------------------------|
E |-----------------------|----------------------------|>

6 | | | | | | | | | | | | | | | | | |
E |----10--9--10------------0-|---2--3--5---5-7--9--10-|-7-5--2--2-0---0--2--0-|
B |-10------------12-10-------|-3----------------------|-------------3---------|
G |----------------------11---|------------------------|-----------------------|
D |---------------------------|------------------------|-----------------------|
A |---------------------------|------------------------|-----------------------|
E |---------------------------|------------------------|-----------------------|>

9 | | | | | | | | | | | |
E |---2--3--5---5-7--9--10-|-7-5-------0---2--0-----|
B |-3----------------------|------7--7---3----------|
G |------------------------|------------------------|
D |------------------------|---------------------12-|
A |------------------------|------------------------|
E |------------------------|------------------------|.

Esta é a página - 97 -
© Copyright by Sandro Rogério Martins – Todos os direitos reservados.“A rapadura é mole, mas não é doce. Pensou que ia ser moleza!” Nada é fácil nesta vida.

3-34 SH489 Comunhão preciosa


Tom:
1 | | | | | | | | | | | | | | | | | | | |
E |---------7---7-|-7---7---5---0-|-3---3---2-----|--------------|---------2---2-|
B |-3-3-3---------|---------------|-------------5-|-3---3--------|-3-3-3---------|
G |---------------|---------------|---------------|--------------|---------------|
D |---------------|---------------|---------------|--------------|---------------|
A |---------------|---------------|---------------|--------------|---------------|
E |---------------|---------------|---------------|--------------|---------------|>

6 | | | | | | | | | | | | | | | | | | | |
E |-5---5---3---3-|-7---7---5-----|-5---5--------|---------8---8-|-8---8---7---7-|
B |---------------|-------------5-|--------------|---------------|---------------|
G |---------------|---------------|--------------|-7-7-7---------|---------------|
D |---------------|---------------|--------------|---------------|---------------|
A |---------------|---------------|--------------|---------------|---------------|
E |---------------|---------------|--------------|---------------|---------------|>

11 | | | | | | | | | | | | | | | | | | | |
E |-7---7---------|-----7--------|-7-7-7---10--10-|-10--10--8-----|-5---6---6---6-|
B |---------7---8-|-10-----------|----------------|-------------8-|---------------|
G |---------------|--------------|----------------|---------------|---------------|
D |---------------|--------------|----------------|---------------|---------------|
A |---------------|--------------|----------------|---------------|---------------|
E |---------------|--------------|----------------|---------------|---------------|>

16 | | | | | | | | | | | |
E |-6---6-------5-|-3-------------|--------------|
B |---------------|-----3----3--3-|-3---3--------|
G |---------------|---------------|--------------|
D |---------------|---------------|--------------|
A |---------------|---------------|--------------|
E |---------------|---------------|--------------|.

3-35 SH510 Chuvas de bênçãos


Tom:
1 | | | | | | | | | | | | | | | | | |
E |-1-1-1-1-3-5-6--------|-5-5-5-5-6-8-6--------|-------6-5--------6---|
B |------------------6---|----------------------|-8-8-8-----8-6--------|
G |----------------------|----------------------|----------------------|
D |----------------------|----------------------|----------------------|
A |----------------------|----------------------|----------------------|
E |----------------------|----------------------|----------------------|>

4 | | | | | | | | | | | | | | | | | |
E |-6-6-6-6-5-6-8--------|-10------9-10-6--------|-10-8-6-6-5-6-8--------|
B |----------------------|-------------------6---|-----------------------|
G |----------------------|-----------------------|-----------------------|
D |----------------------|-----------------------|-----------------------|
A |----------------------|-----------------------|-----------------------|
E |----------------------|-----------------------|-----------------------|>

7 | | | | | | | | | | | |
E |-10-10-10-8-6--------6---|-5-5-5-5-6-8----------|
B |--------------8-6--------|-------------11-------|
G |-------------------------|----------------------|
D |-------------------------|----------------------|
A |-------------------------|----------------------|
E |-------------------------|----------------------|.
3-36 SH514 Suplica de consagração
Tom:
1 | | | | | | | | | | | | | | | | | |
E |-------3-----3----3--4-5-6----6---|-6-8-3-6---------4-4-3---3--------|
B |---4-6----------------------------|-----------------------6----------|
G |-3--------------------------------|----------------------------------|
D |----------------------------------|----------------------------------|
A |----------------------------------|----------------------------------|
E |----------------------------------|----------------------------------|>
Esta é a página - 98 -
© 2008 by Tablat32 – Cópias somente com autorização

3 | | | | | | | | | | | | | | | | | |
E |-------3-----3----3--4-5-6----6---|-6-8-3-6---------4-4-3------------|
B |---4-6----------------------------|-----------------------6-4--------|
G |-3--------------------------------|----------------------------------|
D |----------------------------------|----------------------------------|
A |----------------------------------|----------------------------------|
E |----------------------------------|----------------------------------|>

5 | | | | | | | | | | | | | | | | | |
E |-3-4-6-8-----8----11-10-8-8----6---|-6-4-3-----------3-4-6-8-6----3---|
B |-----------------------------------|-------6--------------------------|
G |-----------------------------------|----------------------------------|
D |-----------------------------------|----------------------------------|
A |-----------------------------------|----------------------------------|
E |-----------------------------------|----------------------------------|>

7 | | | | | | | | | | | | | | | | | |
E |-3-4-6-8-----8----11-10-8-8----6---|-6-4-3-----------4-4-3------------|
B |-----------------------------------|-------6---------------6----------|
G |-----------------------------------|----------------------------------|
D |-----------------------------------|-------------------------13-------|
A |-----------------------------------|----------------------------------|
E |-----------------------------------|----------------------------------|.
3-37 SH536 A igreja militante
Tom:

1 | | | | | | | | | | | | | | | |
E |-3---3---3---3-4-|-6-------3----|-4---4---4-6-4-3-|---------6----|
B |-----------6-----|--------------|-----------------|-6------------|
G |-----------------|--------------|-----------------|--------------|
D |-----------------|--------------|-----------------|--------------|
A |-----------------|--------------|-----------------|--------------|
E |-----------------|--------------|-----------------|--------------|>

5 | | | | | | | | | | | | | | | |
E |-3---3---3---3-4-|-6-------3---3-4-|-1---1-3-4---3-1-|--------------|
B |-----------6-----|-----------------|-----------------|--------------|
G |-----------------|-----------------|-----------------|-8------------|
D |-----------------|-----------------|-----------------|--------------|
A |-----------------|-----------------|-----------------|--------------|
E |-----------------|-----------------|-----------------|--------------|>

9 | | | | | | | | | | | | | | | |
E |-8---8---11-10-11-8-|--------------|-----------6-----|---------6----|
B |--------------------|-11------8----|-9---9---9---9-8-|-6------------|
G |--------------------|--------------|-----------------|--------------|
D |--------------------|--------------|-----------------|--------------|
A |--------------------|--------------|-----------------|--------------|
E |--------------------|--------------|-----------------|--------------|>

13 | | | | | | | | | | | | | | | |
E |-8---8---11-10-11-8-|-6-------3---3-4-|-1---1-3-4---3-1-|--------------|
B |--------------------|-----------------|-----------------|--------------|
G |--------------------|-----------------|-----------------|--------------|
D |--------------------|-----------------|-----------------|-13-----------|
A |--------------------|-----------------|-----------------|--------------|
E |--------------------|-----------------|-----------------|--------------|.
3-38 SH552 Fortelece a tua igreja
Tom:
1 | | | | | | | | | | | | | | | |
E |-------3-4-3-----|-3---3-4-6-4-3---|-8---6-8-9-8-6---|-6------------|
B |-6---6---------6-|---------------6-|---------------9-|---9-8---6----|
G |-----------------|-----------------|-----------------|--------------|
D |-----------------|-----------------|-----------------|--------------|
A |-----------------|-----------------|-----------------|--------------|
E |-----------------|-----------------|-----------------|--------------|>
Esta é a página - 99 -
© Copyright by Sandro Rogério Martins – Todos os direitos reservados.“A rapadura é mole, mas não é doce. Pensou que ia ser moleza!” Nada é fácil nesta vida.

5 | | | | | | | | | | | | | | | |
E |-------3-4-3-----|-3---3-4-6-4-3---|-8---6-8-9-8-6---|-6------------|
B |-6---6---------6-|---------------6-|---------------9-|---9-8---6----|
G |-----------------|-----------------|-----------------|--------------|
D |-----------------|-----------------|-----------------|--------------|
A |-----------------|-----------------|-----------------|--------------|
E |-----------------|-----------------|-----------------|--------------|>

9 | | | | | | | | | | | | | | | |
E |-8---4-6-8-6---6-|-4-----3-4-3---3-|-------3-4-6---6-|-4---6-4-6-8----|
B |-----------------|-----6-----------|-6---6-----------|----------------|
G |-----------------|-----------------|-----------------|----------------|
D |-----------------|-----------------|-----------------|----------------|
A |-----------------|-----------------|-----------------|----------------|
E |-----------------|-----------------|-----------------|----------------|>

13 | | | | | | | | | | | | | | | |
E |-------3-4-3-----|-3---3-4-6-4-3---|-8---6-8-9-8-6---|-6------------|
B |-6---6---------6-|---------------6-|---------------9-|---9-8--------|
G |-----------------|-----------------|-----------------|---------10---|
D |-----------------|-----------------|-----------------|--------------|
A |-----------------|-----------------|-----------------|--------------|
E |-----------------|-----------------|-----------------|--------------|.
3-39 SH566 Hei de ve-
ve-lo
Tom:

1 | | | | | | | | | | | | | | | |
E |-4-6-8---8-8-8-8-|-6-4-8-4-4-----|-----4-4-4-4-4-8-|-6---6--------|
B |-----------------|-----------6-4-|-4-4-------------|---9----------|
G |-----------------|---------------|-----------------|--------------|
D |-----------------|---------------|-----------------|--------------|
A |-----------------|---------------|-----------------|--------------|
E |-----------------|---------------|-----------------|--------------|>

5 | | | | | | | | | | | | | | | |
E |-8-9-11-------8-8-|-----1-1-1-1-4-|-3-1-----4-8-8-6-|---3-4--------|
B |---------9-11-----|---------------|-----4-4---------|-6------------|
G |------------------|-8-8-----------|-----------------|--------------|
D |------------------|---------------|-----------------|--------------|
A |------------------|---------------|-----------------|--------------|
E |------------------|---------------|-----------------|--------------|>

9 | | | | | | | | | | | | | | | |
E |-8-8-6--------3-|---3-4---------|-4-6-8-8-8-8-9-8-|-6---6--------|
B |----------------|-6-----------4-|-----------------|---9----------|
G |----------------|---------------|-----------------|--------------|
D |----------------|---------------|-----------------|--------------|
A |----------------|---------------|-----------------|--------------|
E |----------------|---------------|-----------------|--------------|>

13 | | | | | | | | | | | | | | | |
E |-8-9-11-------8-|-9-8-6---------|-3-------4-8-8-6-|---------------|
B |----------------|-------------6-|---6-4-----------|-6-------------|
G |----------------|---------------|-----------------|---12-13-------|
D |----------------|---------------|-----------------|---------------|
A |----------------|---------------|-----------------|---------------|
E |----------------|---------------|-----------------|---------------|.
3-40 SH570 Junto ao trono de Deus
Tom:

1 | | | | | | | | | | | | | | | | | | | |
E |-----8---8-8-8-|-7------------0-|-0-0-1---1-0---|-0-1----------|-----8---8-8-8-|
B |-8-8-----------|---10-8---------|-------------3-|-----8--------|-8-8-----------|
G |---------------|----------------|---------------|--------------|---------------|
D |---------------|----------------|---------------|--------------|---------------|
A |---------------|----------------|---------------|--------------|---------------|
E |---------------|----------------|---------------|--------------|---------------|>
Esta é a página - 100 -
© 2008 by Tablat32 – Cópias somente com autorização

6 | | | | | | | | | | | | | | | | | | | |
E |-7--------------|-8-8-7-----7----|--------------|-7-8-10-------|-8-7-8--------|
B |---10-8---------|---------8---10-|-8-7-8--------|--------------|--------------|
G |--------------9-|----------------|--------------|--------------|--------------|
D |----------------|----------------|--------------|--------------|--------------|
A |----------------|----------------|--------------|--------------|--------------|
E |----------------|----------------|--------------|--------------|--------------|>

11 | | | | | | | | | | | | | | | |
E |-----5---5-5-5-|-10-8-7-------7-|------8---8-8-8-|-12-8----------|
B |-8-8-----------|----------------|-10-8-----------|------10-------|
G |---------------|----------------|----------------|---------------|
D |---------------|----------------|----------------|---------------|
A |---------------|----------------|----------------|---------------|
E |---------------|----------------|----------------|---------------|>

15 | | | | | | | |
E |-8-8-----8-12-10-|----------------|
B |-----8-----------|-13-12-13-------|
G |-----------------|----------------|
D |-----------------|----------------|
A |-----------------|----------------|
E |-----------------|----------------|.
3-41 SH585 Bela terra
Tom:

1 | | | | | | | | | | | | | | | | | |
E |-----7-7-7-|-----------|-----8-8-8-|-7------------|-----7-7-7-|-8---10-10-10-|
B |-----------|-10--8-8-8-|-----------|-----10-10-10-|-----------|--------------|
G |-7---------|-----------|-7---------|--------------|-7---------|--------------|
D |-----------|-----------|-----------|--------------|-----------|--------------|
A |-----------|-----------|-----------|--------------|-----------|--------------|
E |-----------|-----------|-----------|--------------|-----------|--------------|>

7 | | | | | | | | | | | | | | |
E |--------10----|--------------|-10-----------|-10--7-7-7-|-10--12-10-8-|
B |-12--10----13-|-----10-------|-----10-10-10-|-----------|-------------|
G |--------------|-11-----12-12-|--------------|-----------|-------------|
D |--------------|--------------|--------------|-----------|-------------|
A |--------------|--------------|--------------|-----------|-------------|
E |--------------|--------------|--------------|-----------|-------------|>

12 | | | | | | | | | | | | | | |
E |-----10-8-7-|-7-----------|-7---8-7-8-|-----7----7-|-8---10-9-10-|
B |-10---------|-----10-9-10-|-----------|-10----10---|-------------|
G |------------|-------------|-----------|------------|-------------|
D |------------|-------------|-----------|------------|-------------|
A |------------|-------------|-----------|------------|-------------|
E |------------|-------------|-----------|------------|-------------|>

17 | | | | | | | | | | | |
E |-10--12-11-12-|-8---10-9-10-|--------10----|--------------|
B |--------------|-------------|-12--10----13-|-----10-------|
G |--------------|-------------|--------------|-11-----12-12-|
D |--------------|-------------|--------------|--------------|
A |--------------|-------------|--------------|--------------|
E |--------------|-------------|--------------|--------------|.
3-42 SH592 Anelos do céu
Tom:

1 | | | | | | | | | | | | | | | |
E |-2-------0---2-0-|-----10-----10--|---------2-----|-0------------|
B |-----------3-----|-3-------12-----|-10----------3-|--------------|
G |-----------------|----------------|---------------|--------------|
D |-----------------|----------------|---------------|--------------|
A |-----------------|----------------|---------------|--------------|
E |-----------------|----------------|---------------|--------------|>>
Esta é a página - 101 -
© Copyright by Sandro Rogério Martins – Todos os direitos reservados.“A rapadura é mole, mas não é doce. Pensou que ia ser moleza!” Nada é fácil nesta vida.

5 | | | | | | | | | | | | | | | |
E |-2-------0---2-0-|-----10-----10--|-----------0---0-|--------------|
B |-----------3-----|-3-------12-----|-10--------------|--------------|
G |-----------------|----------------|-----11----------|--------------|
D |-----------------|----------------|--------12-------|-12-----------|
A |-----------------|----------------|-----------------|--------------|
E |-----------------|----------------|-----------------|--------------|>

9 | | | | | | | | | | | | | | | |
E |-9----10-12-----|-------------10-|-10--7-------7-|--------------|
B |-------------10-|-10---12-10-----|---------8-----|-10-----------|
G |----------------|----------------|---------------|--------------|
D |----------------|----------------|---------------|--------------|
A |----------------|----------------|---------------|--------------|
E |----------------|----------------|---------------|--------------|>

13 | | | | | | | | | | | | | | | |
E |---------0-----0-|-----10--7-10--|---------0---0-|--------------|
B |-7-----------7---|---------------|-10--7---------|--------------|
G |-----------7-----|-7-------------|-------7-------|--------------|
D |-----------------|---------------|---------------|-12-----------|
A |-----------------|---------------|---------------|--------------|
E |-----------------|---------------|---------------|--------------|>
3-43 SH595 Brilhando por Jesus
Tom:
1 | | | | | | | | | | | | | | | | | |
E |---0-----0--------10--0-|-----8-7-----7--------|---0-----0--------10--0-|
B |-----7-8---8-7----------|----------10----------|-----7-8---8-7----------|
G |-7----------------------|-7--------------------|-7----------------------|
D |------------------------|----------------------|------------------------|
A |------------------------|----------------------|------------------------|
E |------------------------|----------------------|------------------------|>

4 | | | | | | | | | | | | | | | | | |
E |-----8-7----------------|------7---10-10-------|-10-8---------8-12---10----|
B |----------10-8----------|-8----------------7---|------10-7-10--------------|
G |-7--------------------7-|----------------------|-------------------------7-|
D |------------------------|----------------------|---------------------------|
A |------------------------|----------------------|---------------------------|
E |------------------------|----------------------|---------------------------|>

7 | | | | | | | | | | | |
E |------7---10-10-------|-10------8-7-------------|
B |-8----------------7---|----7-10-----10----------|
G |----------------------|----------------12-------|
D |----------------------|-------------------------|
A |----------------------|-------------------------|
E |----------------------|-------------------------|.

3-44 SH609 Convite aos meninos


Tom:
1 | | | | | | | | | | | | | | | | | | | |
E |---------------|-6---8-6------|-5---5-6-8---10-|-6---5--------|---------------|
B |-6---8-6-----6-|---------8----|----------------|-------8-6----|-6---8-6-----6-|
G |---------7-----|--------------|----------------|--------------|---------7-----|
D |---------------|--------------|----------------|--------------|---------------|
A |---------------|--------------|----------------|--------------|---------------|
E |---------------|--------------|----------------|--------------|---------------|>

6 | | | | | | | | | | | | | | | |
E |-6---8-6------|-5---5-6-8---10-|-6------------|-10--10--11---10-|
B |---------8----|----------------|--------------|-----------------|
G |--------------|----------------|--------------|-----------------|
D |--------------|----------------|--------------|-----------------|
A |--------------|----------------|--------------|-----------------|
E |--------------|----------------|--------------|-----------------|>>

Esta é a página - 102 -


© 2008 by Tablat32 – Cópias somente com autorização

10 | | | | | | | | | | | | | | | | | | | |
E |-10-8-8---8----|-8---8---10---8-|-8-6-6--------|---------------|-6---8-6------|
B |--------8------|----------------|-------8-6----|-6---8-6-----6-|---------8----|
G |---------------|----------------|--------------|---------7-----|--------------|
D |---------------|----------------|--------------|---------------|--------------|
A |---------------|----------------|--------------|---------------|--------------|
E |---------------|----------------|--------------|---------------|--------------|>

15 | | | | | | | |
E |-5---5-6-8---10-|--------------|
B |----------------|-11-----------|
G |----------------|--------------|
D |----------------|--------------|
A |----------------|--------------|
E |----------------|--------------|.

3-45 SH640 Castelo forte


Tom:

1 | | | | | | | | | | | | | | | |
E |-10--10--10--------|-9---10-9--------|-10--9---7------|-7--------0------|
B |-------------10-12-|----------12--10-|-------------10-|---10-8-7--------|
G |-------------------|-----------------|----------------|-----------------|
D |-------------------|-----------------|----------------|--------------12-|
A |-------------------|-----------------|----------------|-----------------|
E |-------------------|-----------------|----------------|-----------------|>

5 | | | | | | | | | | | | | | | |
E |-10--10--10--------|-9---10-9--------|-10--9---7------|-7-------0-----|
B |-------------10-12-|----------12--10-|-------------10-|-----8-7-------|
G |-------------------|-----------------|----------------|-------------7-|
D |-------------------|-----------------|----------------|---------------|
A |-------------------|-----------------|----------------|---------------|
E |-------------------|-----------------|----------------|---------------|>

9 | | | | | | | | | | | | | | | | | | | |
E |-----5---7---5-|-4---5--------|-----5---5---7-|-9---10-------|-9---10--9---7-|
B |---------------|--------------|---------------|--------------|---------------|
G |-7-------------|--------------|-7-------------|--------------|---------------|
D |---------------|--------------|---------------|--------------|---------------|
A |---------------|--------------|---------------|--------------|---------------|
E |---------------|--------------|---------------|--------------|---------------|>

14 | | | | | | | | | | | | | | | |
E |-7------------|-7---7-------7----|--------------|-10--9---7------|
B |-----10-------|---------10----10-|-8---7--------|-------------10-|
G |--------------|------------------|--------------|----------------|
D |--------------|------------------|--------------|----------------|
A |--------------|------------------|--------------|----------------|
E |--------------|------------------|--------------|----------------|>

18 | | | |
E |-7--------0------|
B |---10-8-7--------|
G |-----------------|
D |--------------12-|
A |-----------------|
E |-----------------|.
3-46 SH650 Despedida
Tom:

1 | | | | | | | | | | | | | | | |
E |-0----0--0-0-0-0-|-3-------0----|-5----5--5-5-5-5-|-5-------3----|
B |-----------------|-----3--------|-----------------|--------------|
G |-----------------|--------------|-----------------|--------------|
D |-----------------|--------------|-----------------|--------------|
A |-----------------|--------------|-----------------|--------------|
E |-----------------|--------------|-----------------|--------------|>>
Esta é a página - 103 -
© Copyright by Sandro Rogério Martins – Todos os direitos reservados.“A rapadura é mole, mas não é doce. Pensou que ia ser moleza!” Nada é fácil nesta vida.

5 | | | | | | | | | | | | | | | |
E |-3----3--3-3-3-3-|-3------------|---------5-3-----|-0-----------0-1-|
B |-----------------|---------5----|-5----5------1-3-|-----3---1-------|
G |-----------------|--------------|-----------------|-----------------|
D |-----------------|--------------|-----------------|-----------------|
A |-----------------|--------------|-----------------|-----------------|
E |-----------------|--------------|-----------------|-----------------|>

9 | | | | | | | | | | | | | | | |
E |-----8---12--10-8-|-----8---8---7-5-|------5--------0-|-------------0----|
B |-8----------------|-10--------------|-8-------8-5-----|------------------|
G |------------------|-----------------|-------------5---|-7-------------10-|
D |------------------|-----------------|-----------------|------------------|
A |------------------|-----------------|-----------------|------------------|
E |------------------|-----------------|-----------------|------------------|>

13 | | | | | | | | | | | | | | | |
E |-----8---12--10-8-|-----8---8---8----|---0-----0-----|--------------|
B |-8----------------|-10------------10-|-8---1-3-----3-|--------------|
G |------------------|------------------|---------------|--------------|
D |------------------|------------------|---------------|-10-----------|
A |------------------|------------------|---------------|--------------|
E |------------------|------------------|---------------|--------------|.
3-47 HC212 Os guerreiros
Tom:

1 | | | | | | | | | | | | | | | | | | | |
E |-6----8--6---3-|------3--------|------3--------|--------------|-3----5--6---3-|
B |---------------|-6-------6---3-|-6-------6---4-|-3---6--------|---------------|
G |---------------|---------------|---------------|--------------|---------------|
D |---------------|---------------|---------------|--------------|---------------|
A |---------------|---------------|---------------|--------------|---------------|
E |---------------|---------------|---------------|--------------|---------------|>

6 | | | | | | | | | | | | | | | | | | | |
E |-6-----------6-|-----8---8---10-|-8------------|------8--------|-1----3--1-----|
B |------6--6-----|-8--------------|--------------|-11------11--8-|-------------3-|
G |---------------|----------------|--------------|---------------|---------------|
D |---------------|----------------|--------------|---------------|---------------|
A |---------------|----------------|--------------|---------------|---------------|
E |---------------|----------------|--------------|---------------|---------------|>

11 | | | | | | | | | | | | | | | | | | | |
E |-1----3--1-----|-----1--------|------5--6-----|-----6-------11-|-10------8----|
B |-------------4-|-3------------|-8-----------8-|-6--------------|--------------|
G |---------------|--------------|---------------|----------------|--------------|
D |---------------|--------------|---------------|----------------|--------------|
A |---------------|--------------|---------------|----------------|--------------|
E |---------------|--------------|---------------|----------------|--------------|>

16 | | | | | | | | | | | | | | | |
E |-6-------------|-6---6-----------|-6---6-----------|---------------|
B |-------------6-|-------------8-6-|-----------------|-6---6---6---6-|
G |---------------|-----------------|-------------7-8-|---------------|
D |---------------|-----------------|-----------------|---------------|
A |---------------|-----------------|-----------------|---------------|
E |---------------|-----------------|-----------------|---------------|>

20 | | | | | | | | | | | | | | | |
E |---------------|-5---5-----------|-6---10------6-|-----8---8---10-|
B |-6-----------6-|-------------8-6-|---------------|-8--------------|
G |---------------|-----------------|---------------|----------------|
D |---------------|-----------------|---------------|----------------|
A |---------------|-----------------|---------------|----------------|
E |---------------|-----------------|---------------|----------------|>

Esta é a página - 104 -


© 2008 by Tablat32 – Cópias somente com autorização

24 | | | | | | | | | | | | | | | |
E |-8-------6---8-|-10--10------8-6-|-10--10------8-6-|-8---6-------6-|
B |-----6---------|-----------------|-----------------|---------8-----|
G |---------------|-----------------|-----------------|---------------|
D |---------------|-----------------|-----------------|---------------|
A |---------------|-----------------|-----------------|---------------|
E |---------------|-----------------|-----------------|---------------|>

28 | | | | | | | | | | | | | | | |
E |---------------|-----6-------11-|-10-----------|--------------|
B |-6---6---------|-6--------------|---------13---|-11-----------|
G |---------7---8-|----------------|--------------|--------------|
D |---------------|----------------|--------------|--------------|
A |---------------|----------------|--------------|--------------|
E |---------------|----------------|--------------|--------------|.

3-48 HC301 Vem cear


Tom:
1 | | | | | | | | | | | | | | | |
E |-0-----5---0---|-----5-7-5---5-|-5-5-7-7-7-5---5-|--------------|
B |---6-8---8---8-|-8-8-------6---|-------------8---|-6-8-5--------|
G |---------------|---------------|-----------------|--------------|
D |---------------|---------------|-----------------|--------------|
A |---------------|---------------|-----------------|--------------|
E |---------------|---------------|-----------------|--------------|>

5 | | | | | | | | | | | | | | | |
E |-------5---0---|-----5-7-5---5-|-5-5-7-7-7--------|----7-8--------|
B |-5-6-8---8---8-|-8-8-------6---|-----------10-8-8-|-10------------|
G |---------------|---------------|------------------|---------------|
D |---------------|---------------|------------------|---------------|
A |---------------|---------------|------------------|---------------|
E |---------------|---------------|------------------|---------------|>

9 | | | | | | | | | | | | | | | |
E |---8-7-7-7-7-7---|---5----------|-----5-5-5-5-5-5-|-7-8-10-------|
B |-8-------------6-|-6---8--------|-8-8-------------|--------------|
G |-----------------|--------------|-----------------|--------------|
D |-----------------|--------------|-----------------|--------------|
A |-----------------|--------------|-----------------|--------------|
E |-----------------|--------------|-----------------|--------------|>

13 | | | | | | | | | | | | | | | |
E |-----12-12-12-10-8-|-----8-8-8-7----|-------7-7-7------|-7-10----------|
B |-8-8---------------|-------------10-|-10-10-------10-8-|------13-------|
G |-------------------|-9-9------------|------------------|---------------|
D |-------------------|----------------|------------------|---------------|
A |-------------------|----------------|------------------|---------------|
E |-------------------|----------------|------------------|---------------|.
3-49 HC467 Solta o cabo da nau
Tom:

1 | | | | | | | | | | | | | | | |
E |---------------|-7------------7-|---------7---7-|-8------------8-|
B |-------------8-|-----------8----|---------------|-----------8----|
G |---------7-----|---------7------|---------------|---------9------|
D |---------------|----------------|---------------|----------------|
A |---------------|----------------|---------------|----------------|
E |---------------|----------------|---------------|----------------|>

5 | | | | | | | | | | | | | | | | | |
E |---------10--8-|-7---------7--10-|---------8---7-|-----------------10--8-|
B |---------------|---------8-------|---------------|-10--------------------|
G |---------------|-----------------|---------------|-----------------------|
D |---------------|-----------------|---------------|-----------------------|
A |---------------|-----------------|---------------|-----------------------|
E |---------------|-----------------|---------------|-----------------------|>
Esta é a página - 105 -
© Copyright by Sandro Rogério Martins – Todos os direitos reservados.“A rapadura é mole, mas não é doce. Pensou que ia ser moleza!” Nada é fácil nesta vida.

9 | | | | | | | | | | | | | | | |
E |-7------------|-7-------10--10-|-8------------8-|---------10--8-|
B |-----------8--|----------------|-----------8----|---------------|
G |---------7----|----------------|---------9------|---------------|
D |--------------|----------------|----------------|---------------|
A |--------------|----------------|----------------|---------------|
E |--------------|----------------|----------------|---------------|>

13 | | | | | | | | | | | | | | | | | |
E |-7---------7-----|----------------|-----------------10--10-|-10------7-7--7-|
B |---------8----10-|---------7---10-|-8----------------------|----------------|
G |-----------------|----------------|------------------------|----------------|
D |-----------------|----------------|------------------------|----------------|
A |-----------------|----------------|------------------------|----------------|
E |-----------------|----------------|------------------------|----------------|>

17 | | | | | | | | | | | | | | | |
E |---------10--10-|-12------8-8--8-|---------12--12-|-10------7----10-|
B |----------------|----------------|----------------|-----------8-----|
G |----------------|----------------|----------------|-----------------|
D |----------------|----------------|----------------|-----------------|
A |----------------|----------------|----------------|-----------------|
E |----------------|----------------|----------------|-----------------|>

21 | | | | | | | | | | | | | | | | | |
E |---------8---7-|-----------------10--8-|-7------------|-7-------10--10-|
B |---------------|-10--------------------|-----------8--|----------------|
G |---------------|-----------------------|---------7----|----------------|
D |---------------|-----------------------|--------------|----------------|
A |---------------|-----------------------|--------------|----------------|
E |---------------|-----------------------|--------------|----------------|>

25 | | | | | | | | | | | | | | | |
E |-8------------8-|---------10--8-|-7---------7-----|----------------|
B |-----------8----|---------------|---------8----10-|---------7---10-|
G |---------9------|---------------|-----------------|----------------|
D |----------------|---------------|-----------------|----------------|
A |----------------|---------------|-----------------|----------------|
E |----------------|---------------|-----------------|----------------|>

29 | | | |
E |--------------|
B |--------------|
G |-12-----------|
D |--------------|
A |--------------|
E |--------------|.
3-50 HC545 Porque ele vive
Tom:

1 | | | | | | | | | | | | | | | | | | | |
E |-----4---4---6-|-8----8--9---8-|-6----6--8---6-|-4------------|---------------|
B |---------------|---------------|---------------|--------------|-----4---------|
G |---------------|---------------|---------------|--------------|---------5---6-|
D |---------------|---------------|---------------|--------------|---------------|
A |---------------|---------------|---------------|--------------|---------------|
E |---------------|---------------|---------------|--------------|---------------|>

6 | | | | | | | | | | | | | | | | | | | |
E |--------------|-----4---8---6-|--------------|-----6---------|--------------|
B |-4------------|---------------|-9-------6----|---------9---6-|--------------|
G |--------------|---------------|------6-------|---------------|-8------------|
D |--------------|---------------|--------------|---------------|--------------|
A |--------------|---------------|--------------|---------------|--------------|
E |--------------|---------------|--------------|---------------|--------------|>>
Esta é a página - 106 -
© 2008 by Tablat32 – Cópias somente com autorização

11 | | | | | | | | | | | | | | | | | | | |
E |----------------|--------------|---------------|--------------|-----4---6---8-|
B |-----6----------|--------------|-----4---------|-4------------|---------------|
G |---------8----7-|-6------------|---------5---6-|--------------|---------------|
D |----------------|--------------|---------------|--------------|---------------|
A |----------------|--------------|---------------|--------------|---------------|
E |----------------|--------------|---------------|--------------|---------------|>

16 | | | | | | | | | | | | | | | | | | | |
E |-9------------|-------------6-|-8----7--8---4-|---------3---6-|-4------------|
B |---------6----|-----9---9-----|---------------|-4----4--------|--------------|
G |--------------|---------------|---------------|---------------|--------------|
D |--------------|---------------|---------------|---------------|--------------|
A |--------------|---------------|---------------|---------------|--------------|
E |--------------|---------------|---------------|---------------|--------------|>

21 | | | | | | | | | | | | | | | | | | | |
E |---------4---6-|-8-------8----|-----8-9-8----6-|--------------|-----6---4-----|
B |-----4---------|--------------|----------------|-9-------6----|-------------6-|
G |---------------|--------------|----------------|------6-------|---------------|
D |---------------|--------------|----------------|--------------|---------------|
A |---------------|--------------|----------------|--------------|---------------|
E |---------------|--------------|----------------|--------------|---------------|>

26 | | | | | | | | | | | | | | | | | | | |
E |--------------|---------4---8-|-6------------|---------4---6-|-8-------9----|
B |-4-------4----|-----4---------|--------------|-----4---------|--------------|
G |--------------|---------------|--------------|---------------|--------------|
D |--------------|---------------|--------------|---------------|--------------|
A |--------------|---------------|--------------|---------------|--------------|
E |--------------|---------------|--------------|---------------|--------------|>

31 | | | | | | | | | | | | | | | | | | | |
E |-11--8---6---8-|-9------------|-------------6-|-8----8--9---8-|-6----6--8---6-|
B |---------------|---------6----|-----9---9-----|---------------|---------------|
G |---------------|--------------|---------------|---------------|---------------|
D |---------------|--------------|---------------|---------------|---------------|
A |---------------|--------------|---------------|---------------|---------------|
E |---------------|--------------|---------------|---------------|---------------|>

36 | | | | | | | | | | | | | | | | | | | |
E |-4------------|---------------|--------------|-----4---8---6-|--------------|
B |--------------|-----4---------|-4------------|---------------|-9-------6----|
G |--------------|---------5---6-|--------------|---------------|------6-------|
D |--------------|---------------|--------------|---------------|--------------|
A |--------------|---------------|--------------|---------------|--------------|
E |--------------|---------------|--------------|---------------|--------------|>

41 | | | | | | | | | | | | | | | | | | | |
E |-----6---------|--------------|----------------|--------------|---------------|
B |---------9---6-|--------------|-----6----------|--------------|-----4---------|
G |---------------|-8------------|---------8----7-|-6------------|---------5---6-|
D |---------------|--------------|----------------|--------------|---------------|
A |---------------|--------------|----------------|--------------|---------------|
E |---------------|--------------|----------------|--------------|---------------|>

46 | | | | | | | | | | | | | | | | | | | |
E |--------------|-----4---6---8-|-9------------|-------------6-|-8----7--8---4-|
B |-4------------|---------------|---------6----|-----9---9-----|---------------|
G |--------------|---------------|--------------|---------------|---------------|
D |--------------|---------------|--------------|---------------|---------------|
A |--------------|---------------|--------------|---------------|---------------|
E |--------------|---------------|--------------|---------------|---------------|>>

Esta é a página - 107 -


© Copyright by Sandro Rogério Martins – Todos os direitos reservados.“A rapadura é mole, mas não é doce. Pensou que ia ser moleza!” Nada é fácil nesta vida.

51 | | | | | | | | | | | | | | | | | | | |
E |---------3---6-|-4------------|---------4---6-|-8-------8----|-----8-9-8----6-|
B |-4----4--------|--------------|-----4---------|--------------|----------------|
G |---------------|--------------|---------------|--------------|----------------|
D |---------------|--------------|---------------|--------------|----------------|
A |---------------|--------------|---------------|--------------|----------------|
E |---------------|--------------|---------------|--------------|----------------|>

56 | | | | | | | | | | | | | | | | | | | |
E |--------------|-----6---4-----|--------------|---------4---8-|-6------------|
B |-9-------6----|-------------6-|-4-------4----|-----4---------|--------------|
G |------6-------|---------------|--------------|---------------|--------------|
D |--------------|---------------|--------------|---------------|--------------|
A |--------------|---------------|--------------|---------------|--------------|
E |--------------|---------------|--------------|---------------|--------------|>

61 | | | | | | | | | | | | | | | | | | | |
E |---------4---6-|-8-------9----|-11--8-------8-|-9------------|----------------|
B |-----4---------|--------------|---------11----|--------------|-----9---9---11-|
G |---------------|--------------|---------------|---------10---|----------------|
D |---------------|--------------|---------------|--------------|----------------|
A |---------------|--------------|---------------|--------------|----------------|
E |---------------|--------------|---------------|--------------|----------------|>

66 | | | | | | | | | | | | | | | |
E |-8----8--9---8-|---------8------|--------------|--------------|
B |---------------|-11---11-----11-|--------------|--------------|
G |---------------|----------------|-13-----------|--------------|
D |---------------|----------------|--------------|--------------|
A |---------------|----------------|--------------|--------------|
E |---------------|----------------|--------------|--------------|.
3-51 HC577 Em fervente oração
Tom:

1 | | | | | | | | | | | | | | | | | |
E |-----5----5-|-5--------|-5-6-8----8-|-8---5----|-----5------|-----5------|
B |-6-8--------|-----6----|------------|----------|-6-6------8-|----------8-|
G |------------|----------|------------|----------|------------|-5----------|
D |------------|----------|------------|----------|------------|------------|
A |------------|----------|------------|----------|------------|------------|
E |------------|----------|------------|----------|------------|------------|>

7 | | | | | | | | | | | | | | | | | |
E |----------|----------|-----5----5-|-5--------|-5-6-8----8-|-8---5----|
B |-----6----|----------|-6-8--------|-----6----|------------|----------|
G |-5--------|----------|------------|----------|------------|----------|
D |----------|----------|------------|----------|------------|----------|
A |----------|----------|------------|----------|------------|----------|
E |----------|----------|------------|----------|------------|----------|>

13 | | | | | | | | | | | | | | | | | |
E |-----5------|-----5------|----------|----------|-8-8-10---10-|-10--10--12-|
B |-6-6------8-|----------8-|-----6----|----------|-------------|------------|
G |------------|-5----------|-5--------|----------|-------------|------------|
D |------------|------------|----------|----------|-------------|------------|
A |------------|------------|----------|----------|-------------|------------|
E |------------|------------|----------|----------|-------------|------------|>

19 | | | | | | | | | | | | | | | | | |
E |-10--10--8-|-----8----|-8---10---10-|-10--10--12-|-13--12---|-10--8----|
B |-----------|-10-------|-------------|------------|----------|----------|
G |-----------|----------|-------------|------------|----------|----------|
D |-----------|----------|-------------|------------|----------|----------|
A |-----------|----------|-------------|------------|----------|----------|
E |-----------|----------|-------------|------------|----------|----------|>>

Esta é a página - 108 -


© 2008 by Tablat32 – Cópias somente com autorização

25 | | | | | | | | | | | | | | | | | |
E |-----5----5-|-5--------|-5-6-8----8-|-8---5----|-----5------|-----5------|
B |-6-8--------|-----6----|------------|----------|-6-6------8-|----------8-|
G |------------|----------|------------|----------|------------|-5----------|
D |------------|----------|------------|----------|------------|------------|
A |------------|----------|------------|----------|------------|------------|
E |------------|----------|------------|----------|------------|------------|>

31 | | | | | |
E |----------|----------|
B |----------|----------|
G |-5---10---|----------|
D |----------|----------|
A |----------|----------|
E |----------|----------|.

Esta é a página - 109 -