Você está na página 1de 4

www.baixowe.

com

O que so tablaturas?
Tablatura uma maneira mais fcil e mais completa que a cifra usado para transcrever
msicas que podem ser tocadas em instrumentos de corda como violes, guitarras e
baixos, ao contrrio das partituras que exigem maior conhecimento de msica e bastante
treino.
Como Ler tablaturas?
Visualiza um conjunto de linhas que representam as cordas do instrumento. Sendo
assim para uma guitarra ou violo comum voc ter seis linhas, para um baixo de quatro
cordas ter quatro linhas, para um baixo de cinco cordas cinco linhas.
Uma tablatura padro de baixo (quatro cordas) sem notas apresenta-se da seguinte
forma:
G-------------------------------------------------|
D-------------------------------------------------|
A-------------------------------------------------|
E-------------------------------------------------|
A linha de baixo representa a corda mais grossa E "mi" e a linha de cima representa a
corda mais fina G "sol". De cima para baixo as linhas representam as cordas sol, r, l,
mi.
Nmeros escritos nas linhas indicam em que traste as respectivas cordas devem ser
apertadas ao serem tocadas. Nmero 0 indica corda solta. As notas devem ser lidas da
esquerda para a direita.

G--------------------------------------------------|
D--------------------------------------------------|
A--------------------------------------------------|
E--0-1-2-3----------------------------------------|
O exemplo acima indica as seguinte notas (uma de cada vez) na ordem:
- corda mais grossa deve ser tocada solta (0)
- depois a mesma corda deve ser tocada no primeiro traste (1)
- depois a mesma corda deve ser tocada no segundo traste (2)
- depois a mesma corda deve ser tocada no terceiro traste (3)
todas na mesma corda mi.
Legenda Usada em Tablatura

---------------h - hammer-on - Toca a nota e "liga outra nota sem palhetar ou dedilhar(dedos).
p - pull-off - Toca a nota e "martela a nota anterior.
b - fazer um bend - Toca a nota e levanta a corda mudando 1 tom
1

www.baixowe.com

br - bend release - Toca a nota levanta a corda e desce a corda


/ - slide para cima (pode ser usado s) - Toca uma nota e escorrega para uma casa "outra
nota".
\ - slide para baixo (pode ser usado s)
~ - vibrato (pode ser usado v)
t - tapping - toca a nota e toca com a mo direita
x - nota morta
PM - palm muting - Toca a nota abafando a corda
( ) - nota fantasma
| - diviso de compasso
Legenda Slap
P - puxada
T - marteda com polegar

OBS: Voc pode pegar tablaturas prontas de msicas em sites da internet e acompanhar
junto. Note que as tablaturasencontradas podem estar em outra afinao, diferente da
afinao padro EAGD. Tem programas para criar tablaturas e abrir tablaturas prontas
Guitar Pro
Power Tab Editor
Exemplos de Tablaturas
As tablaturas podem ser simples possuindo apenas uma frase como no exemplo abaixo.
Legio Urbana - Que Pas Esse
Riff:
G|--------------------------------------------------D|--------------------------------------------------A|-7-7-5-7-7-5-7-3-3-3-3-5-5-5----------------E|--------------------------------------------------Essa parte repete a msica toda.
Geralmente nas tablaturas tem: intro, refro, versos, brigde, solo, etc. Encontram-se
divididas por compassos "|".
Nirvana - About a Girl
Intro
G-----------------------------------|
D-----------------------------------|
A-----------------------------------|
E---0-00-3-33---0-0-0-3-3-3-3-|

www.baixowe.com

Versos
E
G7M
E
G
G|----------|----------|----------|----------|
D|----------|----------|----------|----------|
A|----------|----------|----------|---2---2--|
E|-0-00-----|-3-23-----|-0-0-0----|-3---3----|
Refrao part 1:
C#
G#
F#
F#
G|----------|----------|----------|----------|
D|----------|----------|----------|----------|
A|-4-44-----|----------|----------|----------|
E|----------|-4-44-----|-2-2-4----|-2-4-2-4--|
Refrao part 2:
E
G
A
C
G|----------|----------|----------|----------|
D|----------|----------|----------|----------|
A|----------|----------|-0-0-0----|-3-333----|
E|-0-00-----|-3-33-----|----------|----------|

Skank Vou deixar


Intro
G|-----------------|
D|-----------------|
A|--10h121212121212|
E|-----------------|

essa parte tem um hammer on "h"

Verso
Vou deixar....
G|-------------------------------|
D|-------------------------------| x2
A|-5-55-----------------55----55-|
E|-------2-22--3-33--33----55----|

essa parte repete 2 vezes

Pr-refro
No, no, no quero hora pra voltar, no
G|---------------------|
|-----------------------------|
D|---------------------|
|-----------------------------|
A|--555--222-----------| x3
|--555--222-------\1212121212-|
E|------------333--555-|
|------------333--------------|sinal de
\ quer dizer slide

www.baixowe.com
Vou me esquecer de mim...
G|------------------------------------|
D|------------------------------------|
A|-7---5-7---5-7--9---7-9---7-9-------|
E|---7-----7--------9-----9------5~~~-|

essa parte tem vibrato

Muitas vezes nas tablaturas so mostradas as partes, depois so repetir!.


Obs: No esquea que no s tocar as notas que aparecem na tablatura, vc tem
que tocar dentro do ritmo e tempo da msica!