Você está na página 1de 7

Como Ler Tablaturas

O que so tablaturas?
Tablatura (tablature ou tabulature ou tab em ingls) um mtodo usado para transcrever msica
que pode ser tocada em instrumentos de corda como violes, guitarras e baixos, e tambm em
outros instrumentos como gaita e bateria. Ao contrrio das partituras que exigem maior
conhecimento de msica e bastante treino, as tablaturas so voltadas para o msico iniciante ou
prtico.
Notaes usadas em tablaturas
Alm dos nmeros que apenas indicam qual corda deve ser ferida em qual casa (traste) existem
algumas letras e simbolos comumente usadas para notar determinadas tcnicas. Essas notaes
podem variar um pouco de autor para autor mas as mais comuns so:
h - fazer um hammer-on
p - fazer um pull-off
b - fazer um bend para cima
r - soltar o bend
/ - slide para cima (pode ser usado s)
- slide para baixo (pode ser usado s)
~ - vibrato (pode ser usado v)
t - tap
x - tocar a nota abafada (som percusivo)
Exemplo 1:
E-------------------------------------------------------B-------------------------------------------------------G-------------------------------------------------------D-------------------------------------------------------A-------------------------------------------------------E---0--1--2--3-------------------------------------------

O exemplo acima indica as seguinte notas (uma de cada vez) na ordem:


- corda mais grossa deve ser tocada solta (0)
- depois a mesma corda deve ser tocada no primeiro traste (1)
- depois a mesma corda deve ser tocada no segundo traste (2)
- depois a mesma corda deve ser tocada no terceiro traste (3)
Exemplo 2:
E-------------------------------------------------------B-------------------------------------------------------G---------0--------1--0---------------------------------D---0--3-----0--3---------------------------------------A-------------------------------------------------------E--------------------------------------------------------

O exemplo acima o incio do riff de Smoke On The Water da banda Deep Purple e deve ser
tocado da seguinte forma:
- terceira corda (re) tocada solta (0)
- terceira corda (re) tocada no terceiro traste (3)
- quarta corda (sol) tocada solta (0)
- terceira corda (re) tocada solta (0)
- terceira corda (re) tocada no terceiro traste (3)
- quarta corda (sol) tocada no primeiro traste (1)
- quarta corda (sol) tocada solta (0)

Exemplo 3:
Nos exemplos acima as notas so tocadas uma de cada vez. Quando duas ou mais notas
(obviamente em duas ou mais cordas) devem ser tocadas de uma s vez (formando um acorde) a
indicao conforme abaixo:
E----3-------------------------------------------------B----3-------------------------------------------------G----4-------------------------------------------------D----5-------------------------------------------------A----5-------------------------------------------------E----3--------------------------------------------------

Note que este um acorde sol maior. Note que estando na mesma coluna as notas devem ser
tocadas todas de uma s vez indicando um acorde. Apenas devem ser tocadas as cordas
marcadas (no exemplo acima todas). Uma linha vazia indica que a corda no deve ser tocada.
Um nmero zero indica que a corda deve ser tocada solta. Embora possam indicar acordes o
mais comum que as tablaturas sejam usadas para solos ou riffs enquanto os acordes so
indicados por cifras.
Embora de maneira geral as tablaturas no indiquem o tempo de durao das notas e o intervalo
entre elas, o espaamento entre as colunas pode ser usado para dar alguma idia sobre tempo e
durao conforme o exemplo abaixo. Tratam-se das primeiras notas do hino nacional americano.
Note o espao maior que indica a pausa.

Exerccios:
Rolling In The Deep / Sem Me Controlar
Lu e Robertinho
E|----------------------------------------------|
B|-------3-1--------------------3-1-3/5---------|
G|-----0-----4-2-0------------0---------2-0-----|
D|-2-4-------------4-2----2-4---------------4-2-|
A|----------------------------------------------|
E|----------------------------------------------|

Nothing Else Matters


Metallica
Introduo 1:
(Violo)
Em
E|-------------0--------------------------B|---------0------0-----------------------G|-----0--------------0-------------------D|----------------------------------------A|----------------------------------------E|-0---------------------------------------

E|----------0------7--7----------7p0------B|-------0-----0---------0-----0-----0----G|----0---------------------0-----------0-D|----------------------------------------A|----------------------------------------E|--0-----------------0--------------------

E|-0-----7--8--7h8/5--7--5p3/2------------B|-------0--0---------0---------5--5-----5G|----0-------------------------------5---D|----------------------------------------A|---------------------------------0------E|-0---------------------------------------

C
E|-2p0------------------0--0---0---0------B|------5-----------5------5---5---5------G|---------5-----5---------5---5---5-----5D|----------------------------------------A|------------0------------0---2---3--3---E|-----------------------------------------

D9
E|-------3p0--------0---0-----------------B|-5----------5-----5---7------------7----G|----5----------5--5---7-------7--------7D|----------------------------------------A|------------------3---5---5-------------E|----------------------------------------Harm. .

E|-0h5p0-------------------------12-------B|--------7p0--0h5-----12---12--------0---G|---------------------12----------------0D|----------------------------------------A|----------------------------------------E|------------------0----------------------

Em
E|-------------0--------------------------B|---------0------0-----------------------G|-----0--------------0-------------------D|----------------------------------------A|----------------------------------------E|-0---------------------------------------

Don't Cry
Guns N' Roses
Intro: Am
Am

Dm
Dm

G
G

( C

G/B )

Am
Dm
E|-------------0--------------1-----------B|---------------1----------3---3---------G|-----------2-----2------2-------2-------D|---------2---------0-0------------0-----A|------0---------------------------------E|-3--------------------------------------G
C
G/B
E|---------3------------------------------B|-----------3----------------------------G|-------0-----0-------0-----0------------D|-----0---------0---2-----0--------------A|---2-------------3-----2-----3-2--------E|-3---------------------------------------

Am
Dm
E|--------0--------------1----------------B|----------1----------3---3--------------G|------2-----2------2-------2------------D|----2---------0-0------------0----------A|-0--------------------------------------E|----------------------------------------G
E|----------------------------------------B|----------------------------------------G|-------0--------------------------------D|-----0----------------------------------A|---2------------------------------------E|-3----------3-3-4-5----------------------

Dj Vu
Pitty
E|------------------------------------------------------------------------|
B|---0---0----0---0---0---0----0---0---0---0---0---0---0---0-------0-p1-0-|
G|---------------------------------------------------------------0--------|
D|-2---2---0----0---------------------------------------------------------|
A|------------------3---3---0----0-------------------0---0---3------------|
E|-----------------------------------0---0---3---3------------------------|

E|-------------------------------------0---------0--------0-----------------|
B|---0---0----0---0---0---0----0---0-----0---------0--------0--------0-p1-0-|
G|-----------------------------------------0---------0--------0----0--------|
D|-2---2---0----0-----------------------------------------------------------|
A|------------------3---3---0----0----------------------0-------3-----------|
E|-----------------------------------0--------3-----------------------------|

Behind Blue Eyes


Limp Bizkit
Intro: Em

G6

D5(9)

C9

A5(9)

Em
G6
E|----------0-----------------0-----------B|------------0------------------3--------G|-------0------0-----------0------0------D|-----2----------0-------0----------0----A|---2------------------2-----------------E|-0----------------3---------------------D5(9)
E|--------0---------------0---------------B|-----3----3---3------3----3---3---------G|---2--2-----2------2--2-----2-----------D|-0--------------0-----------------------A|----------------------------------------E|-----------------------------------------

C9
E|---------0---------------0--------------B|-----3-----3---3-----3-----3---3--------G|---0---0-----0-----0---0-----0----------D|----------------------------------------A|-3--------------3-----------------------E|----------------------------------------A5(9)
E|--------0----------------0--------------B|----0-----0---0------0-----0---0--------G|------2-----2----------2-----2----------D|---2---------------2--------------------A|-0--------------0-----------------------E|-----------------------------------------

Vento No Litoral
Legio Urbana
intro) Am
F

Em (2x)
C (2x)

(parte 1)
e|---------------------------------------------------|
B|---5---3---1-----12----10---8----------------------|
G|---------------------------------------------------|
D|-5---4---2----12----10----9------------------------|
A|---------------------------------------------------|
E|---------------------------------------------------|

(2x)

(parte 2)
e|---------------------------------------------------|
B|---6---5---3----5---3---1--------------------------|
G|---------------------------------------------------|
D|-7---5---3----5---3---2----------------------------|
A|---------------------------------------------------|
E|---------------------------------------------------|

(2x)

(parte 3 - repete parte 1)


e|---------------------------------------------------|
B|---5---3---1-----12----10---8----------------------|
G|---------------------------------------------------|
D|-5---4---2----12----10----9------------------------|
A|---------------------------------------------------|
E|---------------------------------------------------|

(2x)

(parte 4)
e|---------------------------------------------------|
B|---5---3---1----6---5---3----5---3---1-------------|
G|---------------------------------------------------|
D|-5---3---2----8---7---5----7---5---2---------------|
A|---------------------------------------------------|
E|---------------------------------------------------|

(parte 5)
Am
e|---------------------------------------------------|
B|-0h1-----1-3---0----1--0h1-----1-3---0-------------|
G|-------0---------0--2--------0---------0-----------|
D|-----0-------0------2------0-------0---------------|
A|--------------------0------------------------------|
E|---------------------------------------------------|