Você está na página 1de 8

Intro: Bm G D A/C#

Bm
G
D
A/C#
Vem Senhor Jesus tu ES bem vindo neste lugar (2x)
Bm
As sandlias eu tirei
G
Minhas vestes eu limpei
D
F#m7
S pra te ver s pra te ver
(D C G)

Jesus o Caminho
Helosa Rosa
Tom: F
Intro: F

Bb9

Dm

F
No se turbe o vosso corao
C
Bb9
Crede em Deus e tambm em mim
Dm C
Na casa de meu pai h muitas moradas
F
C
Se no fosse assim, eu no teria dito
Bb9
Vou preparar-vos um lugar
Dm
C
Eu verei e vos levarei para mim mesmo
F
C
Bb9
Vs conheceis o caminho para onde eu vou
Dm
EU SOU O CAMINHO, A VERDADE E A VIDA
C
F
Ningum vem ao pai, a no ser por mim
C
Bb9
Em verdade eu vos digo, porque eu vou para o pai
Dm
C
F
Mas aquele que crer em mim, obras maiores far
( F Am7 Bb9
Riff 1:

Dm

C )

E|----------------------------------------|-------------------------------------------|
B|--14\10--14\8--14\10--14\8--14\10--14\8-|-14\10--14\8--14\10--14\8--14\10-14\8------|
G|----------------------------------------|--------------------------------------8/10-|
D|----------------------------------------|-------------------------------------------|
A|----------------------------------------|-------------------------------------------|
E|----------------------------------------|-------------------------------------------|

F
C
Se me amais verdadeiramente
Bb9
Guardareis os meus mandamentos
Dm
C
Eu rogarei ao pai, e ele vos dar o consolador
F
C
Bb9
O esprito da verdade que o mundo no pode receber
Mas ele habita em vs
Dm
C
E estar em vs pra sempre
Riff 2:
E|------------------|
B|--12/14-15-13-12--|
G|------------------|
D|------------------|
A|------------------|
E|------------------|

F
C
Aquele que tem os meus mandamentos
Bb9
Dm C
E os guarda, esse o que me ama
F
C
E se algum me ama
Bb9
Ser amado por meu pai
Dm
E eu tambm os amarei
C
F
C Bb9 Dm C
E me manifestarei a ele...
a ele...
F
C
Quero te amar mais senhor...
Bb9
Dm C
Quero te amar mais senhor...
F
C
Quero te amar mais senhor...
Bb9
Dm C
Quero te amar mais senhor...
Solo: C
Riff 1:

Bb9

Dm

E|----------------------------------------|-------------------------------------------|
B|--14\10--14\8--14\10--14\8--14\10--14\8-|-14\10--14\8--14\10--14\8--14\10-14\8------|
G|----------------------------------------|--------------------------------------8/10-|
D|----------------------------------------|-------------------------------------------|
A|----------------------------------------|-------------------------------------------|
E|----------------------------------------|-------------------------------------------|

( F
Am7 )
La, la, la, La
( Bb9 Dm
C )
La, la, la, la (2x)

Que Ele Cresa


Deigma Marques
Compositor: Deigma Marques

Tom: D
Intro: D

D9

D
D9 G D
D9
G
Mais de Ti, mais de Ti
Bm
A
G
e menos de mim,
e menos de mim (2x)
Em
G
Que Ele cresa e eu diminua
Bm
A
Que Ele aparea e eu me constranja
Em
G
Com a Sua glria e todo o seu amor
Bm
Infinita humildade
A
Servo de todos os irmos
( Em

Bm

A )

Ziguezageando
Kleber Lucas
Tom: C
Intro: C
(C

Am (3x)
F)

C
Am
Existe tanta coisa que o meu Senhor quer me mostrar
C
Am
Existem tantos sonhos que o meu Senhor quer me fazer sonhar
C
Am
Eu quero ir no cu e voltar
C
F
Eu quero ver os anjos de Deus ziguezagueando ziguezagueando
C
Am
Eu quero ser arrebatado
C
Am
Eu quero ver mais longe ver mais longe ver mais longe ver mais longe
C
Am
C
Eu quero estar mais perto
estar mais perto
estar mais perto
estar mais
perto estar mais perto estar mais
Am
perto
C
Am
Eu quero ver a tua Shekinah
C
Am
F
Eu quero ver os anjos de Deus ziguezagueando ziguezagueando
C
Am
Eu quero ser arrebatado
C
Am
Eu quero ver mais longe ver mais longe ver mais longe ver mais longe
C
Am
C

Eu quero estar mais perto


estar mais perto
perto estar mais perto estar mais
Am
perto
C
Am
Eu quero ver a tua Shekinah
C
G
Am
F
Eu vou ziguezagueando ziguezagueando eu vou
C
G
Am
F
Eu vou ziguezagueando ziguezagueando eu vou

estar mais perto

estar mais

Aos Ps da Cruz
Oficina G3
Tom: D
Intro harmnicos: (3x)
HNHNHNHNHNHNHNHNHN HN HN HN HN HN HN HN
E|--------------------12-12-12-12-12-12-12-12----|
B|-----------------------------------------------|
G|-----------------------------------------------|
D|----7-7-7-7-7-7-7-7----------------------------|
A|-----------------------------------------------|
E|-----------------------------------------------|

Intro (2x): A9 A F#m7 F#m Em riff 1


riff 1
G|-6/7---7/6--6/9--7/6--4-4-2-4/6--2~~|
D|------------------------------------|
A|-4/5---5/4--4/7--5/4--2-2-0-2/4--0~~|
E|------------------------------------|
riff2
G|---------------------|
D|---------------------|
A|4-5-4-5-4-7--5-4-5-2~|
E|---------------------|

Base primeiras quatro frases com Harmnicos: (Cada frase cantada faz o riff
uma vez)
HNHNHNHNHNHNHNHNHN HN HN HN HN HN HN HN
E|------------------12-12-12-12-12-12-12-12---|
B|--------------------------------------------|
G|--------------------------------------------|
D|--------------------------------------------|
A|--7-7-7-7-7-7-7-7---------------------------|
E|--------------------------------------------|
HNHNHNHNHNHNHNHNHN HN HN HN HN HN HN HN
E|------------------12-12-12-12-12-12-12-12---|
B|--------------------------------------------|

(2X)

G|--------------------------------------------|
D|--------------------------------------------|
A|--5-5-5-5-5-5-5-5---------------------------|
E|--------------------------------------------|
HNHNHNHNHNHNHNHNHN HN HN HN HN HN HN HN
E|------------------12-12-12-12-12-12-12-12---|
B|--------------------------------------------|
G|--------------------------------------------|
D|--------------------------------------------|
A|--7-7-7-7-7-7-7-7---------------------------|
E|--------------------------------------------|
A9
A
Meu Jesus maravilhoso s
F#m
F#m7
Minha inspirao a prosseguir
G
E mesmo quando tudo no vai bem
D9
Eu continuo olhando para Ti.
Aqui a guitarra entra tocando as notas nos bordes e abafando
A9
A
Pois sei que Tu tens o melhor pra mim
F#m
H um segredo no Teu corao
Em
Oh! D-me foras pra continuar
abafado aos poucos.
Bm
D
riff 2
Guardando a promessa em orao.

< Nessa frase vai desfazendo o

A9
Firme

A9/C#
oh! Deus est o meu corao
G
Firme nas promessas do Senhor
D9
Eu continuo olhando para Ti
A9
E assim eu sei que posso prosseguir
Em
E mesmo quando eu chorar
A
Bm7
As minhas lgrimas sero
A9
G
Para regar a minha f
Bm
A9
E consolar meu corao
Em
Pois o que chora aos ps da cruz
A Bm7
Clamando em nome de Jesus
A9
G
Alcanar de Ti Senhor
A9
Misericrdia Graa e luz
(Intro)
(Faz a base com harmnicos nas primeiras quatro frases cantadas novamente)
A9
Teu grande amor no cessa
F#m7

Eterno no tem fim


Em
Quo grande s Tu Senhor
G
Quo grande s pra mim
A9
Tua graa o meu refgio
F#m
Descanso no Teu poder
Em
Maravilhoso s
G
G9
Maravilhoso s pra mim
A9
Firme

A9/C#
oh! Deus est o meu corao
G
Firme nas promessas do Senhor
D9
Eu continuo olhando para Ti
A9
E assim eu sei que posso prosseguir
Em
E mesmo quando eu chorar
A
Bm7
As minhas lgrimas sero
A9
G
Para regar a minha f
B
A9
E consolar meu corao
Em
Pois o que chora aos ps da cruz
A Bm7
Clamando em nome de Jesus
A9
G
Alcanar de Ti Senhor
A9
Misericrdia Graa e luz
Base Solo (3x):
E|--------------------------------------------------------|
B|--------------------------------------------------------|
G|-----------------------------9-9-9-9-9-9-9-9-9-9-9-9----|
D|----7-7-7-7-7-7-7-7-7-7-7-7--9-9-9-9-9-9-9-9-9-9-9-9----|
A|----7-7-7-7-7-7-7-7-7-7-7-7--7-7-7-7-7-7-7-7-7-7-7-7----|
E|----5-5-5-5-5-5-5-5-5-5-5-5-----------------------------|

E|-------------------------------------------|
B|-------------------------------------------|
G|---------------------7-7--7-7---6-7-9------|
D|----5-4-------4-5----7-7--7-7---6-7-9-7----|
A|--------7-5-7---5----5-5--5-5---4-5-7-7----|
E|----------------3---------------------5----|
(Solo:)
E|---------------------------------------------------|
B|----15b(17)r15-14----------------------------------|
G|-------------------14-14b(16)r14b-14--12-11-9-7----|
D|---------------------------------------------------|
A|---------------------------------------------------|
E|---------------------------------------------------|

E|--------------------------------------------------------------------|
B|----14b(15)r14-12----12-14-10b(12)~~-10-----------------------------|
G|------------------14--------------------12-11-12-11-----------------|
D|----------------------------------------------------12-14b-12x12----|
A|--------------------------------------------------------------------|
E|--------------------------------------------------------------------|

E|--------------------------------------17----|
B|----------------------15x15--15h16h18-------|
G|-------------14-16-18-----------------------|
D|----14-16-17--------------------------------|
A|--------------------------------------------|
E|--------------------------------------------|

E|----15b(17)-15b(17)~~-14b----------19\17-------19-17----|
B|--------------------------17-15-17-------17-20----------|
G|--------------------------------------------------------|
D|--------------------------------------------------------|
A|--------------------------------------------------------|
E|--------------------------------------------------------|

E|----15h19p15--------------------------------------|
B|-------------19p15--------------------------------|
G|-------------------16----------16----------14~----|
D|----------------------17p16-------17p16-----------|
A|----------------------------17----------17--------|
E|--------------------------------------------------|

E|--------------------------------------------14----------10h14t19/17p14p10~--------------|
B|-----------------------------------------12----12----12---------------------------------|
G|----14-12-11-12-11b-------------------11----------11----------------------------14~~----|
D|--------------------12-------------12-------------------------------------11/14---------|
A|-----------------------14~~---9h14------------------------------------------------------|
E|----------------------------------------------------------------------------------------|

A9
Firme

A9/C#
oh! Deus est o meu corao
Em
Firme nas promessas do Senhor
G
Eu continuo olhando para Ti
D
A9
E assim eu sei que posso prosseguir
Em
E mesmo quando eu chorar
A
Bm7
As minhas lgrimas sero
A9
G
Para regar a minha f
B
A9
E consolar meu corao

Em7
Pois o que chora aos ps da cruz
A Bm7
Clamando em nome de Jesus
A9
G
Alcanar de Ti Senhor
D A9
Misericrdia Graa e luz
Fim (1x):
Cifra