Você está na página 1de 8

24/05/13

Cifra Club | LAYLA - Eric Clapton

LETRAS.MUS.BR

PALCO MP3

FRUM

NOTCIAS

AUDIOWARE

GUITAR BATTLE

FORME SUA BANDA

Entrar

publicidade

incio

cifras e tabs

top msicas

aprenda

enviar cifra

notcias

letras

frum

minhas cifras

ARTISTAS A B C D E F G H I J K L M N O P Q R S T U V W X Y Z 0/9
Pgina Inicial

Eric Clapton

Layla

Cifra

Guitar Pro

Eric Clapton
Colunas

Alterar tom
tom

tom

afinao
acordes na letra
esconder tabs
m ais

Baixo

364.364

Layla

Texto

Partitura

Curtir

Tom: E

clipes

Verso 1
-======Legenda:
h= Hameron
p= pull off

vdeo-aula

54

Tw eetar

Mais...
exibies
Email

voc tocando

Buscar

b= beng
Sempre o Dm deve ser acompanhado por um :
introduo vai ficar :

afinador
rolagem
dicionrio
favoritar cifra
add a minhas cifras
letra
traduo

D|------0-3-0---0-0-|
A|-0-3--------3-----|
e depois
D|-3-3-3--5-5-5--7--------|
A|-1-0-1--3-0-3--5--------|
e segue em frente com a introdo

fotos
vdeos

Entre o Dm do final da intro e o Dm do comeo vc faz o riff:

imprimir

A|--0h3----|

corrigir
salvar txt

Depois entra essa parte:


C#m
G#7
What will you do when you get lonely
C#m
C9
D9
E
E7
With nobody waiting by your side
F#m
B7
E
A

E/G#

You've been running and hiding much too long,


F#m
B7
E
You know it's just your foolish pride.
O resto no deve estar certo porque no corrigi + a parte mais legal da musica esa que eu corrigi
A

Dm

Bb9

C9

Dm

CHORUS: Layla,
you got me on my knees.
Dm Bb9
C9
Dm
Layla,
I'm begging darling please.
Dm Bb9
C9
Dm
Layla,
darling won't you ease my worried mind.
Dm Bb9 C9 A C9 C#m
A EM BAIXO FICA A MESMA CIFRA DE CIMA
C#m
G#7
Tried to give you consolation,
C#m
C9
D9
E
E7
Your old man won't let you down
F#m
B7
E
A
E/G#
Like a fool, I fell in love with you,
F#m
B7
E
Turned the whole world upside down

www.cifraclub.com.br/eric-clapton/layla/

1/8

24/05/13

Cifra Club | LAYLA - Eric Clapton

CHORUS

Exibir acordes

C#m
G#7
Let's make the best of the situation
C#m
C9
D9
E
E7
Before I fin'lly go insane.
F#m
B7
E
A E/G#
Please don't say we'll never find a way
F#m
B7
E
A
And tell me all my loves in vain

CHORUS
SOLINHO
D#m C# H

Bb Ab C#

Bb C# D#m

/ |
| | |
| | |
e||------------------------------------3-5-8-5-8-10-12-10-8-10-8-5-8-5-3-3-1-0-1-0-3B|| ------5-6-5---5-6-5---5-6-8-6-8-10---------------------------------------------||
G||---5-7-------7-------7----------------------------------------------------------||
D||-8------------------------------------------------------------------------------||
A|| -------------------------------------------------------------------------------||
E||--------------------------------------------------------------------------------||

Guitarra Solo (Eric Clapton)

Riff 1: Entrada (2x)


e|--------------------------------------------------------------------|
b|--------------------------------------------------------------------|
g|--------------------------------------------------------------------|
d|---------7----7------------------------7----------------------------|
a|---------5----5------8---8---10---10---5----------------------------|
e|--5--8h----------8---6---6---8----8---------------------------------|
Riff 2: Refro (2x)
Layla...
e|-------10h13p10----10---13b-13r-12----10---------------|
b|-10h13----------13-----------------13------------------|
g|-------------------------------------------------------|
d|-------------------------------------------------------|
a|-------------------------------------------------------|
e|-------------------------------------------------------|
1st
2nd
------ ------*
|
|
e|-------10h13p10----10---15b-15r-12-----10-----9b~~~~~~-|
b|-10h13----------13----------------13-------------------|
g|-------------------------------------------------------|
d|-------------------------------------------------------|
a|-------------------------------------------------------|
e|-------------------------------------------------------|
Se voc quiser fazer as bases, acompanhe as partes de cima.
Escute a musica para pegar o ritmo da entrada e do refro.
________________________________________________________________

Verso 2
-======obs: x do lado do numero quer dizer que pra abafar.
obs2: ouvir a musica para pegar o tempo.
Trancrio: Rafael Ueno (Boi,Cefet,Gura)
Intro

www.cifraclub.com.br/eric-clapton/layla/

2/8

24/05/13

Cifra Club | LAYLA - Eric Clapton

Dm

Bb

Dm

--------------------------------------------------3-3----5-5-------------2--------3-3----5-5-------------0---0----3-3----5-5----2
-----0-3-------3--1-1-1--3-3-3--0
---------------------------------

Dm

Bb

Dm

--------------------------------------------------3-3----5-5-------------2--------3-3----5-5-------------0---0----3-3----5-5--2------0-3-------3--1-1-1--3-3--0----------------------------------

Dm

Bb

Dm

-------------1-1-----------------1
-------------3-3-----3-3----5-5--3
---------2---2-2-----3-3----5-5--2
---------0---0-0-----3-3----5-5--0
-----0-3----------0--1-1-1--3-3------------------------------------

------------------------------------------5-6-5-6-5-----5-6-5----5-------7-----------7---------7--------7----------------------------------------------------------------------------------------------

---s--------s----------8--------10-12-10/1210
6-6/8--6-8-8/10---8-10----10-13---------------------------------------------------------------------------------------------------------------------------------------------------------------------------------------------------

---10---------------------------13----13-10----10---------------------------12----12-10-9-10-9-9-------------------------------------------------------------------------------------------------

-----------------------------------------------------5-6-5-6-5-----------------------------7----7-----------7---7--------------------------7---------------7---5-3---5-3----------------------------------------5------5-3-5-3-0-3
----------------------------------------------

*1
C#m
G#7
What'll you do when you get lonelly
E
C
D
E
no one waiting by your side

www.cifraclub.com.br/eric-clapton/layla/

E7

3/8

24/05/13

Cifra Club | LAYLA - Eric Clapton


--------0---1-----------3---0
----0/1---1---1
------------------------------------------F#m
B7
E
A
You've been runnin'and hidin' much Ing
F#m
B7
E
A
You know it's just foolish pride

Layla...
A
Dm
----1
-2--3
-2--2
-2----------Refro

Dm C

Bb

Dm

-1-----------------------------3----------------------------2
-2--5--3-3-3x--5-5-5x--2------0
----5--3-3-3x--5-5-5x--0--0-3-----3--1-1-1x--3-3-3x----------------------------------------

Dm

Bb

Dm

-1-----------------------------3----------------------------2
-2--5--3-3-3x--5-5-5x--2------0
----5--3-3-3x--5-5-5x--0--0-3-----3--1-1-1x--3-3-3x----------------------------------------

Dm

Bb

Dm

-1-----------------------------3----------------------------2
-2--5--3-3-3x--5-5-5x--2------0
----5--3-3-3x--5-5-5x--0--0-3-----3--1-1-1x--3-3-3x---------------------------------------Dm

Bb

-1------------------------3------------------------2--5--3-3-3x--5-5-5x--------5--3-3-3x--5-5-5x--0-3
----3--1-1-1x--3-3-3x-----------------------------Depois 1*(s muda a letra) ,refro,1*
,refro,refro,mude a ultima parte para:
Dm
C Bb
C
-1---------------------1
-3---------------------3
-2--5--3-3-3x--5-5-5x--2
----5--3-3-3x--5-5-5x--0
----3--1-1-1x--3-3-3x--------------------------

www.cifraclub.com.br/eric-clapton/layla/

4/8

24/05/13

Cifra Club | LAYLA - Eric Clapton


solo

-5-5---5-5-5---5----------------6-6---6-6-6---6--------------------7-------7---7-5--------------------------------7-6-5-5-3--------------------------------5
-------------------------------(varias vezes)
-8--8--8--8--8--8-10-10-10-10-10-10--------------------------------------------------------------------------------------

-------------------------------10-12-10-------------------------10-13---------12b(full)-12-10----10-12-------------------------------12----------------------------------------------------------------------------------------------------

---10----------13----13-10---10
------------12------------------------------------------------

----------------------------10-10-11-10----------------------------12-10-9-10-7/9----------------------------------------------------------------------------------

------------------------------------5-6-5---------------7-5---7-------7-5---------------7-------------7-6-5-5-3-----------------------------5
-----------------------------

-13-10----10-12-12-10----10------------------13-------------13----13-10----10
----------------------------------12---------------------------------------------------------------------------------------------------------------------

-10----13-10-13-15-15-13-------10----------------------------------------------14----------------------------------------------------------------------------------

www.cifraclub.com.br/eric-clapton/layla/

5/8

24/05/13

Cifra Club | LAYLA - Eric Clapton


---12-13-15-13-15-13-15-12-13-1015---------------------------------------------------------------------------------------------------------------------------------------------------------------

----------------------------13-10-------13----10--------------12-10----12----12-10-----------------------------12
---------------------------------------------------------

-10---------------------10-10------------------10-9--9/10----5-5-----------------12-----7-5-3
----------------------------------------------Refro 2 vezes
violo

Ab

B7

Bb

Bb9

teclado

cavaco

C#
4

C#m
4

X0 2 2 2 0

431114

X2 1 2 0 2

X1 3 3 3 1

X1 3 3 1 1

X3 2 0 1 0

X4 6 6 6 4

X4 6 6 5 4

C9

D#m

D9

Dm

E/G#

E7

X3 5 5 3 3

XX0 2 3 2

XX1 3 4 2

XX0 2 3 0

XX0 2 3 1

022100

4 X2 4 5 X

022130

F#m

G#7
4

244222

464544

Contribuio: Enigma
Correes: NegoMassa , gleisson e mais 3

Comentrios (15)

140

Consegui tocar

13 conseguem

Voc precisa estar logado para comentar. Ainda no cadastrado? Cadastre-se


.

Email

Senha

enviar com entrio


Ainda no consegui tocar

www.cifraclub.com.br/eric-clapton/layla/

6/8

24/05/13

Cifra Club | LAYLA - Eric Clapton

Diego:
P ostado em 27/04/2013 23:47

Posta video aula pessoal, mais Eric Clapton, Van Halen...


felipe:
P ostado em 07/03/2013 19:15

to necessitando de um video aula


juarez_skate:
P ostado em 15/10/2012 17:05

tem muita bandinha de sertanejo ae com umas 10 video aula de musica q ninguem nunca ouviu, dai do eric
clapton naum tem pow
jeazin:
P ostado em 15/10/2012 09:53

Video aula !!! Pliss

Cifra Club
Curtir

grande.maia:
P ostado em 16/09/2012 17:10

750.627 pessoas curtiram Cifra Club.

Quem concorda comigo comente tambm! VIDEO AULA! CHEGA DO KCT DE SERTANEJO!!
brunoroxs:
P ostado em 11/09/2012 20:31

Musicas de que marcaram geraes de mitos da musica no tem video-aulas, mas merdas sertanejas que
viraram modinhas tem: FAIL
vergi96:

P lug-in social do F acebook

P ostado em 09/09/2012 09:15

A falta dessa video-aula a falha mais grave desse site que, por sinal, muito bom. Por favor corrijam esse erro!
Valeu, abrao!
msess:
P ostado em 01/09/2012 16:48

VIDEO AULA! CHEGA DE MERDA DE SERTANEJO!


soustira:
P ostado em 02/07/2012 16:14

Aff tem que fazer aula de musica dificil e no de michel tel tnc
mauriciotaunay:
P ostado em 02/07/2012 02:22

pelo amor de deus cade as aulas de Clapton, BB king, Hendrix PQP chega desse lixo de sertanejo
Exibindo 10 de 15 comentrios

Mostrar m ais

semana

ms

1. Te Esperando

ver todos

geral

semana

ms

geral

1. Legio Urbana

Luan Santana
113.666 exibies

2. Vagalumes

360.265 exibies

2. Jorge e Mateus

Pollo
58.029 exibies

3. Tempo Perdido

304.965 exibies

3. Charlie Brown Jr.

Legio Urbana
54.890 exibies

4. 93 Million Miles

213.291 exibies

4. Luan Santana

Jason Mraz
49.385 exibies

5. S Os Loucos Sabem

195.926 exibies

5. Thalles Roberto

Charlie Brow n Jr.


40.841 exibies

6. O Que Que Tem

143.412 exibies

6. Fernandinho

Jorge e Mateus
39.159 exibies

7. Pais e Filhos

125.666 exibies

7. Bruno e Marrone

Legio Urbana
35.082 exibies

8. Faroeste Caboclo
www.cifraclub.com.br/eric-clapton/layla/

102.816 exibies

8. Roberto Carlos
7/8

24/05/13

Cifra Club | LAYLA - Eric Clapton


31.101 exibies

Legio Urbana

96.212 exibies

9. A Gente Nem Ficou

9. Victor e Leo

Jorge e Mateus
29.184 exibies

10.

95.736 exibies

Promoes Cifra Club - Camisetas, livros e kits na faixa!


Fico Assim Sem Voc
Capital Inicial

10.

Adriana Calcanhotto
28.249 exibies

voltar

Top 1000 cifras

RSS

Cifra Club News

94.521 exibies

mais

voltar

Top 1000 artistas

RSS

598 ganhadores | seja o prximo

mais

Mais Servios Cifra Club ID

Top 1000 cifras

Msica em Geral

Vdeo-aulas

Notcias

Top 1000 artistas

Guitarra

Professores

Cobertura de show s

Guitarra e Violo

Violo

Cursos Online

Entrevistas

Contrabaixo

Pedais & Pedaleiras

Tutoriais

Especiais

Bateria

Amplificadores

Livros

Colunas

Partituras

Contra-baixo

Dicionrio de acordes

Gaita

Teclado

Afinador

Guitar Pro

Bateria

Patches/Pedaleiras

Novidades

Canto

Pea uma cifra

Gaita

Envie suas cifras

OFF Topic
Veja outros fruns

Aviso Legal

Poltica de Privacidade

Anuncie

Cadastre-se

Fale conosco

ver en espaol .

1996 - 2013 Cifra Club o primeiro, maior e mais acessado do Brasil 308 mil msicas 5.1 milhes pessoas cadastradas

www.cifraclub.com.br/eric-clapton/layla/

facebook

y outube

8/8