Você está na página 1de 4



&LIUD&OXE_68$0$1(,5$&DSLWDO,QLFLDO FLIUDFRPYLGHRDXOD

/HWUDVPXVEU

3DOFR03

1RWtFLDV

)yUXP

$XGLRZDUH

*XLWDU%DWWOH

)RUPH6XD%DQGD

(QWUDU

&DSLWDO,QLFLDO

6XD0DQHLUD
9LROmR3ULQFLSDO

Tom: D
Intro: Bm G D A (4x)
Estrofes e Refro:
Bm

G D

Ela dormiu

Bm

G D A

no calor dos meus braos

Bm

E eu acordei sem
Bm

G D

Algum tempo atrs


Bm

Bm

G D A

saber se era um sonho


A

Bm

G D A

pensei em te dizer
G

Bm

G D A

Que eu nunca cai nas suas armadilhas de amor


Bm

G D

Naquele amor

Bm

G D A

sua maneira

Bm
Perdendo meu tempo

G D

Bm

G D A

a noite inteira

( Bm G D A ) (4x)

Primeiro Solo:

E|----------------------------------------------------|
B|----------------------------------------------------|
G|----------------------------------------------------|
D|----------------------------------------------------|
A|-/2-4-4h5~--5-5-4\2-------0-0h2--2p0-2p0------------|
E|--------------------5--/2---------------------------|

E|----------------------------------------------------|
B|----------------------------------------------------|
G|-x-x------------------7-----7-7-7\------------------|
D|-x-x------------------7-----7-7-7\------------------|
A|-x-x-2-4-5--7-7/9~--9----9--------------------------|
E|----------------------------------------------------|

E|----------------------------------------------------|
B|-x-x-----------x-x---------x-x----------------------|
G|-x-x------7-7--x-x------7--x-x-7--7-7---------------|
D|-x-x------7-7--x-x------7--x-x-7--7-7---------------|
A|------7/9-----------7/9-----------------------------|
E|----------------------------------------------------|

E|----------------------------------------------------|
B|----------------------------------------------------|
G|----------------------------------------------------|

KWWSVZZZFLIUDFOXEFRPEUFDSLWDOLQLFLDODVXDPDQHLUD





&LIUD&OXE_68$0$1(,5$&DSLWDO,QLFLDO FLIUDFRPYLGHRDXOD

D|----------------------------------------------------|
A|-9\7p5--7b8r7p5-------------------------------------|
E|-----------------7~---------------------------------|

Continuao Estrofes e Refro:


Bm

G D

No mandarei

Bm

Bm

G D

Nem penso em contar


Bm

G D A

cinzas de rosas

G D

Naquele amor

Bm

G D A

os nossos segredos
A

Bm

G D A

sua maneira

Bm
Perdendo meu tempo

G D

Bm

G D A

a noite inteira

( Bm G D A ) (4x)
Segundo Solo:

E|-5/7----5~-----7----5~-----7---5~-------------------|
B|-----7--5~-7-----7--5~-7-----7-5~-------------------|
G|----------------------------------------------------|
D|----------------------------------------------------|
A|----------------------------------------------------|
E|----------------------------------------------------|

E|----------------------------------------------------|
B|-3/5~--3~--3h5~--3--3--2h3-2------------------------|
G|----------------------------------------------------|
D|----------------------------------------------------|
A|----------------------------------------------------|
E|----------------------------------------------------|

E|-10/12-12-10-10--10h12--10-10--9h10-9---------------|
B|--------------------------------------10------------|
G|----------------------------------------------------|
D|----------------------------------------------------|
A|----------------------------------------------------|
E|----------------------------------------------------|

E|----------------------------------------------------|
B|-10/12-12-12-12\7-7-7-7\10-10-10-10\5-5-5-5/7-7-7-7\|
G|----------------------------------------------------|
D|----------------------------------------------------|
A|----------------------------------------------------|
E|----------------------------------------------------|

E|----------------------------------------------------|
B|-2-2-2h3-2h3----------------------------------------|
G|--------------4~------------------------------------|

KWWSVZZZFLIUDFOXEFRPEUFDSLWDOLQLFLDODVXDPDQHLUD





&LIUD&OXE_68$0$1(,5$&DSLWDO,QLFLDO FLIUDFRPYLGHRDXOD

D|----------------------------------------------------|
A|----------------------------------------------------|
E|----------------------------------------------------|

Estrofes e Refro Finais:


Bm

G D

Ela dormiu

Bm

G D A

no calor dos meus braos

Bm

E eu acordei sem
Bm

G D

Algum tempo atrs


Bm

Bm

G D A

saber se era um sonho


A

Bm

G D A

pensei em te dizer
G

Bm

G D A

Que eu nunca cai nas suas armadilhas de amor


Bm

G D

Naquele amor

Bm

DFRUGHV
$

G D A

%P

sua maneira

Bm

G D

Perdendo meu tempo


Bm

Bm

G D A

a noite inteira

G D A

A noite inteira
Bm

G D A

A noite inteira
Bm

G D A

A noite inteira
Bm

G D A

A noite inteira
Bm
Ela dormiu no calor dos meus braos...

%P

'

  










 

 

&RPSRVLomR'LQKR2XUR3UHWR

3DUDXPDLPSUHVVmRGHPHOKRUTXDOLGDGHXWLOL]HROLQNLPSULPLUQRPHQXjHVTXHUGDGDSiJLQD

KWWSVZZZFLIUDFOXEFRPEUFDSLWDOLQLFLDODVXDPDQHLUD





&LIUD&OXE_68$0$1(,5$&DSLWDO,QLFLDO FLIUDFRPYLGHRDXOD

KWWSVZZZFLIUDFOXEFRPEUFDSLWDOLQLFLDODVXDPDQHLUD