Você está na página 1de 5

Como ler tablatura

A tablatura uma notao musical muito utilizada para quem toca


guitarra ou violo.
Com ela voc poder saber a localizao dos dedos no brao do
instrumento.
A tablatura acessvel a qualquer pessoa, diferentemente da
partitura, na qual necessrio um estudo e treinamento mais
demorado para se tocar. geralmente a tablatura no possui ritmo
e no serve para ser lida por outros instrumentistas. Ela tima
para o iniciante e talvez a mais usada forma de notao musical
entre guitarristas e baixistas.
Mas vamos ver como se l a tab!
S necessrio voc entender duas informaes, vamos ver:
1- A tablatura feita de seis linhas, cada linha representa uma
corda do violo. ento fica assim:
Voc tem que decorar isso:
----------------------------------------------------------------------------------------------------------------------------------------------------------------------------------------------------------------------------------------------------------------------------------------------------------------------

1 corda
2 corda
3 corda
4 corda
5 corda
6 corda

OBS: Lembre-se que a primeira corda a mais fina, a mais aguda,


enquanto a sexta a corda mais grossa e mais grave.

2 - Na tablatura iro aparecer os nmeros em cima de cada corda,


esses nmeros representam as casas que devem ser tocadas, de
acordo com as cordas que esse nmero se encontra. veja o
exemplo:

Apareceu o nmero 2 na primeira corda, isso significa que devese tocar a casa 2 na primeira corda

em cdigo seria: 12
--------2------------------------------------------------------------------------------------------------------------------------------------------------------------------------------------------------------------------------------------------------------------------------------------------------------------

1 corda
2 corda
3 corda
4 corda
5 corda
6 corda

s ler da esquerda para direita a sequencia das casas


Em cdigo seria 12 13 15 13 10
--------2---3---5---3---0-----------------------------------------------------------------------------------------------------------------------------------------------------------------------------------------------------------------------------------------------------------------------------------------

1 corda
2 corda
3 corda
4 corda
5 corda
6 corda

OBS: A casa 0 representa a corda solta.


No caso abaixo vemos que a sequencia seria:
1 corda 2 casa ; 2 corda 3 casa ; 1 corda 5 casa ; 2
corda 3 casa ; 1 corda solta
Em cdigo seria: 12 23 15 23 10
--------2------------5---------0--------------------------------3-----------3--------------------------------------------------------------------------------------------------------------------------------------------------------------------------------------------------------------------------------------

Acordes

1 corda
2 corda
3 corda
4 corda
5 corda
6 corda

As notas devem ser tocadas na direo da esquerda para a direita,


independente da corda, porm se elas estiverem dispostas na
mesma vertical, devem ser tocadas juntas:
No caso abaixo devemostocar ao mesmo tempo a casa 2 nas duas
primeiras cordas, criando uma harmonia no som
--------2----------------------------------------- 1 corda
--------2------------------------------------------ 2 corda
----------------------------------------------------- 3 corda
---------------------------------------------------- 4 corda
----------------------------------------------------- 5 corda
----------------------------------------------------- 6 corda
Veja o riff Billie Jean de Michael Jacksoon na tablatura
--------2-------4-------5-------4-----------------------2-------4-------5-------4-------------------------------------------------------------------------------------------------------------------------------------------------------------------------------------------------------------------------------

1 corda
2 corda
3 corda
4 corda
5 corda
6 corda

Quando vamos fazer um acorde, devemos colocar as casas


tocadas tambm na mesma posio
Abaixo sequencia de trs acordes D E A
D

--------2--------------0-------------0---------------- 1 corda
--------3--------------0-------------2---------------- 2 corda
--------2--------------1-------------2----------------- 3 corda
--------0--------------2-------------2----------------- 4 corda
-------------------------2------------0------------------ 5 corda
-------------------------0-------------------------------- 6 corda

Pra ver se voc aprendeu, tente tocar agora a


famosa msica D r mi f

1E]------------------------------0-------1-----1-----1----------------------------------------------------------------------------[
2B]----------1--------3------------------------------------------------1------3--------1-------3--------3-------3-----------[
3G]------------------------------------------------------------------------------------------------------------------------------------[
4D]------------------------------------------------------------------------------------------------------------------------------------[
5A]-------------------------------------------------------------------------------------------------------------------------------------[
6E]-------------------------------------------------------------------------------------------------------------------------------------[

1E]----------------------3--------1-------0-------0--------0-----------------------------0-------1-------1------1------------[
2B]--------1------------------------------------------------------------------1-----3------------------------------------------------[
3G]--------------------------------------------------------------------------------------------------------------------------------------[
4D]--------------------------------------------------------------------------------------------------------------------------------------[
5A]--------------------------------------------------------------------------------------------------------------------------------------[
6E]--------------------------------------------------------------------------------------------------------------------------------------[

Tocando D r mi f agora nas cordas graves

1E]----------------------------------------------------------------------------------------------------------------------------------------------------------------[
2B]----------------------------------------------------------------------------------------------------------------------------------------------------------------[
3G]----------------------------------------------------------------------------------------------------------------------------------------------------------------[
4D]---------------------0---------2----------3----------3----------3---------------------------------0-----------------0-----------0---------0---------[

5A]---------3---------------------------------------------------------------------------------3---------------------3-------------------------------------------[
6E]-----------------------------------------------------------------------------------------------------------------------------------------------------------------[

1E]----------------------------------------------------------------------------------------------------------------------------------------------------------------[
2B]----------------------------------------------------------------------------------------------------------------------------------------------------------------[
3G]-------------------0------------------------------------------------------------------------------------------------------------------------------------------[
4D]----------------------------3----------2----------2---------2---------------------------------0---------2----------3------------3----------3-------[
5A]--------3---------------------------------------------------------------------------3------------------------------------------------------------------------[
6E]----------------------------------------------------------------------------------------------------------------------------------------------------------------[