Você está na página 1de 3

50 Reais:Naiara Azevedo

Intro:
Tom: E (com acordes na forma de C) Capotraste na
4 casa
Intro: Am G Dm E
E|----------------------------------------------------|
B|----------------------------------------------------|
G|----------------------------------------------------|
D|----------0-2-0-2-----------------------------------|
A|-0-----0----------0---------------------------------|
E|---0-0----------------------------------------------|

Primeira Parte: E pra ajudar pagar


F
Am A dama que lhe satisfaz
Bonito C
F Toma aqui uns 50 reais
Que bonito, hein
C No sei se dou na cara dela
Que cena mais linda
G Ou bato em voc
Ser que eu estou atrapalhando G
Mas eu no vim atrapalhar
O casalzinho a
Sua noite de prazer
Am Dm
Que lixo E pra ajudar pagar
F F
C t de brincadeira A dama que lhe satisfaz
C G
Ento aqui o seu futebol Toma aqui uns 50 reais
G
Toda quarta-feira Am G Dm E

Pr-refro: Pr-refro:

F F
E por acaso esse motel E por acaso esse motel
G G
o mesmo que me trouxe na lua de mel o mesmo que me trouxe na lua de mel
Am Am
o mesmo que voc me prometeu o cu o mesmo que voc me prometeu o cu
F F
E agora me tirou o cho E agora me tirou o cho

F F
E no precisa se vestir E no precisa se vestir
G G
Eu j vi tudo que eu Eu j vi tudo que eu

Tinha que ver aqui Tinha que ver aqui


F F
Que decepo Que decepo
Dm G Am G/B Dm G Am G/B
Um a zero pra minha intuio Um a zero pra minha intuio

Refro: Refro:

C C
No sei se dou na cara dela No sei se dou na cara dela

Ou bato em voc Ou bato em voc


G G
Mas eu no vim atrapalhar Mas eu no vim atrapalhar

Sua noite de prazer Sua noite de prazer


Dm Dm
E pra ajudar pagar G C
F Toma aqui uns 50 reais
A dama que lhe satisfaz
C G
Toma aqui uns 50 reais Ai, ai, ai, ai
Dm
Ai, ai, ai, ai
No sei se dou na cara dela
E pra ajudar pagar
Ou bato em voc F
G A dama que lhe satisfaz
Mas eu no vim atrapalhar G C
Toma aqui uns 50 reais
Sua noite de prazer
Dm Solo Intro:
E pra ajudar pagar
F Violo 1:
A dama que lhe satisfaz
Parte 1

E|----------------------------------------------------|
B|-9-9-7-9-9/10-9-7-9----9-9-7-9-9/10-9-7-9-9-7-7-----|
G|--------------------9---------------------------9-9-|
D|----------------------------------------------------|
A|----------------------------------------------------|
E|----------------------------------------------------|

Parte 2

E|----------------------------------------------------|
B|-------7-9-9/10-10p9-9h10-10p9-9h10-10h9-10-10/12---|
G|-8-8-9----------------------------------------------|
D|----------------------------------------------------|
A|----------------------------------------------------|
E|----------------------------------------------------|

Parte 3

E|----------------------------------------------------|
B|-10-9--9/13-13--14/17-17----------------------------|
G|----------------------------------------------------|
D|----------------------------------------------------|
A|----------------------------------------------------|
E|----------------------------------------------------|

Violo 2:

Parte 1

E|----------------------------------------------------|
B|-5-5-4-5-7-5-4-5----5-5-4-5-7-5-4-5-5-4-4-----------|
G|-----------------6------------------------6-6-------|
D|----------------------------------------------------|
A|----------------------------------------------------|
E|----------------------------------------------------|

E|----------------------------------------------------|
B|-------4-5-5/7-7p5-5h7-7p5-5h7-7p5-7-7/9------------|
G|-4-4-6----------------------------------------------|
D|----------------------------------------------------|
A|----------------------------------------------------|
E|----------------------------------------------------|

E|----------------------------------------------------|
B|-5-4--4/9-9--9/14-14--------------------------------|
G|----------------------------------------------------|
D|----------------------------------------------------|
A|----------------------------------------------------|
E|----------------------------------------------------|