Você está na página 1de 119

Caderno de Tablaturas e Cifras para Viola Caipira

Volume 2
1 Ed.

Igor Basso (igorbasso17@gmail.com)


Julho/2015

1
Msicas
Msicas.......................................................................................................................................... 2
80 Janeiros..................................................................................................................................... 5
A Coroa Meu Chapu ................................................................................................................. 6
A Onde Moram Meus Pais ............................................................................................................ 7
A Positivo ....................................................................................................................................... 8
A Vida um Torneio ...................................................................................................................... 9
A Viola e A Caneta ....................................................................................................................... 10
A Viola e A Cruz ........................................................................................................................... 11
A Volta do Filho ........................................................................................................................... 12
A Volta do Seresteiro .................................................................................................................. 13
Anel de Formatura ...................................................................................................................... 14
Arreio de Prata ............................................................................................................................ 15
Aurora do Mundo ........................................................................................................................ 17
Bero de Couro ............................................................................................................................ 19
Berrante de Ouro ........................................................................................................................ 20
Boiada.......................................................................................................................................... 21
Buscando a Felicidade ................................................................................................................. 22
Caboclo Centenrio ..................................................................................................................... 23
Campeo do Pealo ...................................................................................................................... 24
Cano do soldado ...................................................................................................................... 26
Carreador .................................................................................................................................... 27
Carro de Boi ................................................................................................................................. 28
Catimbau ..................................................................................................................................... 29
Celeiro da Saudade...................................................................................................................... 31
Cerne de Aroeira ......................................................................................................................... 33
Cheiro de Gado............................................................................................................................ 34
Cheque Sem Fundo ..................................................................................................................... 36
Cobra Venenosa .......................................................................................................................... 37
Corao da Natureza ................................................................................................................... 39
Cortina do Espao........................................................................................................................ 40
Cumplicidade ............................................................................................................................... 41
Dia Feliz ....................................................................................................................................... 42
Eleitor Envergonhado .................................................................................................................. 43
Entre Ais ...................................................................................................................................... 44
Escritas do Profeta ...................................................................................................................... 45

2
Espelho da Vida ........................................................................................................................... 46
Espelhos da Vida ......................................................................................................................... 47
Eu a Viola e Ela ............................................................................................................................ 48
Filho Pobre .................................................................................................................................. 49
Garganta do Mundo .................................................................................................................... 50
Gosto e Desgosto ........................................................................................................................ 51
Inquilina de Violeiro .................................................................................................................... 52
Juventude na Viola ...................................................................................................................... 53
Lamentos de um Peo ................................................................................................................. 54
Lampio a Querosene ................................................................................................................. 55
Meu Pai ....................................................................................................................................... 56
Meu Stio Meu Paraso ................................................................................................................ 58
Meu Sonho .................................................................................................................................. 59
Moenda da Usina ........................................................................................................................ 60
Mouro da Porteira ..................................................................................................................... 62
Mundo Moderno ......................................................................................................................... 63
Museu da Minha Vida ................................................................................................................. 64
Nis Jeca Mais Nis Jia ........................................................................................................ 65
Novo Amor .................................................................................................................................. 67
Nunca Mais vou te Esquecer ....................................................................................................... 70
O Menino da Gaita ...................................................................................................................... 71
Oceano da Vida ........................................................................................................................... 72
Olhos Lindos ................................................................................................................................ 73
Padecimento ............................................................................................................................... 74
Pagode da Paz ............................................................................................................................. 76
Pai Joo da Mata Virgem ............................................................................................................. 77
Paineira Velha ............................................................................................................................. 78
Palavra de Honra ......................................................................................................................... 79
Peo Centenrio .......................................................................................................................... 80
Pescador Meia Tigela .................................................................................................................. 81
Pingo dgua ............................................................................................................................... 82
Presente Especial ........................................................................................................................ 83
Preto Inocente............................................................................................................................. 84
Previso do Tempo ...................................................................................................................... 86
Primeiro Brinquedo ..................................................................................................................... 88
Rei dos Canoeiros ........................................................................................................................ 89

3
Samambaia .................................................................................................................................. 90
Sangue Caipira ............................................................................................................................. 92
Saudade de Tio Carreiro ............................................................................................................ 93
Saudade ....................................................................................................................................... 95
Sementinha ................................................................................................................................. 96
Sertanejo Solitrio ....................................................................................................................... 97
Sou Violeiro No Sou Modelo ..................................................................................................... 99
Sul de Minas .............................................................................................................................. 100
Transplante de Corao ............................................................................................................ 101
Utopia ........................................................................................................................................ 102
Vara de Marmelo ...................................................................................................................... 103
Velha Porteira............................................................................................................................ 104
Velho Amor ............................................................................................................................... 106
Velho Peo ................................................................................................................................ 107
Velho Pianga .............................................................................................................................. 109
Velho Pouso de Boiada.............................................................................................................. 110
Verdades da Vida ...................................................................................................................... 112
Versos Aos Ps do Homem........................................................................................................ 113
Vestibular da Viola .................................................................................................................... 114
Viola Mulher .............................................................................................................................. 115
Violeiro do Passado ................................................................................................................... 116
Vontade de Trabalhar ............................................................................................................... 118
Vou Onde Tem Amor................................................................................................................. 119

4
80 Janeiros
Os Dois Violeiros Batista dos Santos e Guilherme Violeiro

Tom: E
E |--------------------------------9---7---11---12|
B |-0------0-------0------------------------------|
G#|---7h8------------1p0-----------8---7---10---12|
E |----------3h4---------2p0-2/7------------------|
B |0------0-------0---------------0---0---0----0--|

E |--------------------------------------------------|
B |-0--------0-----0-2p0----------0------0-----------|
G#|---11h12----10--------1p0----------------7-5------|
E |--------------------------2p0----------------7-5-4|
B |0--------0-----0--------------0--2-3-4------------|

E B7
Nasceu no norte de minas, um ilustre brasileiro
A E
Que mostrou para o Brasil ser um caboclo altaneiro
F# B7 F# B7
Seu nome foi consagrado como grande violeiro
E B7 E
Seu estilo refinado fez sucesso no estrangeiro
B7 E
Esse grande baluarte, foi um rei na sua arte, orgulho do cho mineiro

A E7 A
O repique do pagode fez tremer o pas inteiro
B7 E B7 E
S no sufoca a saudade, da eterna majestade, nosso mestre Tio Carreiro
A B7 E B7 E
Hoje tem festa no cu, o saudoso menestrel completa 80 janeiros

Tio Carreiro veio ao mundo, pra cumprir nobre misso


De cantar e tocar viola, sobre os temas do serto
Pelos palcos que passou, conquistou uma gerao
E ainda deixou de herana o estilo como lio
Durmo e acordo sonhando, com a viola repicando, dentro do meu corao

Nosso rei foi pro infinito mais deixou a monarquia


E uma legio de violeiro, renovando a cada dia
Nunca vi faltar pagode nas rodas de cantoria
Tem a moda amargurado, cantada com alegria
Mas eu tenho observado, do alto do seu reinado sua cadeira vazia

Tio Carreiro foi um mestre, que enobreceu a viola


Quando deus lhe presenteou, caprichou e no deu esmola
Deu timbre pra sua voz, nos dedos colocou mola
Seu canto e seu ponteado, tem um som que nos consola
O artista fez sua parte, conquistou seu estandarte, seu legado nossa escola

5
A Coroa Meu Chapu
Juliana Andrade & Jucimara Joo Carreiro

Tom: A
E |---------------------------------------------------------------|
B |--------------5--------------5--------------7-5-----------7-5--|
G#|----------5-6---6--------5-6---6--------5-6-----5-----5-6-----5|
E |----4-5-7---------7--5-7---------7--5-7-----------5-7----------|
B |5-7------------------------------------------------------------|

E |5/7-7-7-10--9-7-5-2-5--5-4-4-4-7-4-7-5|-----------|
B |7/8-8-8-12-10-8-7-3-7--7-5-5-5--------|5-5--------|
G#|-------------------------------6-3-6-5|4-6-3-5-6-5|
E |--------------------------------------|3-4-4-5-7-5|
B |--------------------------------------|5-5--------|

A E7 A
Nas campinas verdejantes, vejo o gado ruminando
E7 A
Na copa de uma paineira, ouo o sabia cantando
G A E7 A
Quero-quero da rasante, defendendo a ninhada
D A C E7 A
Sento na porta do rancho, s pra ver quem passa na estrada

E7 A E7 A
To no serto, to na terra e no cu
E7 A C E7 A
Aqui eu me sinto um rei, e a coroa meu chapu

E quando o sol se esconde, a lua vem e enfeita


A noite desse caboclo, que em na sua rede deita
E pega sua viola, sua companheira amiga
E pra Deus ele agradece, reza em forma de cantiga

6
A Onde Moram Meus Pais
Taviano & Tavares Valito e Taviano

Tom: E
E |------5---------------12--12--10--10--9--9------------|
B |9-9-7-5-----------------------------------------------|
G#|8-8-6-5-/7--7-7-5-3--12--12--10--10--8--8--/7--7-7-3-0|
E |--------/7-7--7-5-4------------------------/7-7--7-4-0|
B |------------------------------------------------------|

E |----------------0-0-0---------------|
B |----------------5-5-5---------------|
G#|------0-3-1-1/3-3-3-3--------0-3-1-0|
E |------0-4-2-2/4-4-4-4--------0-4-2-0|
B |0-2-4-----------5-5-5--0-2-4--------|

E7 A B E
No suportando a saudade, do tempo que longe vai
B E
Voltei aonde vivi, o bom tempo de rapaz
D E D E
O riacho da jangada, quanta lembrana me traz
A E A E
A campina verdejante e os lindos coqueirais
F# B A E B E
Minha alegria foi tanta, quando vi a casa branca, aonde moram meus pais

Na sombra do p de cedro, passei horas recordando


O correr do dia a dia, tudo foi se transformando
No vi as vacas leiteiras, l no porto ruminando
No piquete no vi mais, o meu cavalo pastando
No ouvi mais as batidas, compassadas e seguidas, do monjolo trabalhando

No ouvi mais o ja, piando no taboqueiro


E l na passagem velha, j no tem mais o barreiro
Aonde dava na serra, rastro fresco dos mateiro
Eu no vi mais o Sulto, nem o Gambio ligeiro
Chorei por no resistir, a saudade que senti, dos antigos companheiros

Hoje vivo recordando o barulho do riozinho


Tambm da paineira velha, l da curva do caminho
Seu galhos ainda floram, dando abrigo aos passarinhos
Em seu tronco vi meu nome, gravado entre os espinhos
Do tempo bom que passou, s a saudade ficou, ao longo do meu caminho

7
A Positivo
Z Mulato & Cassiano Z Mulato

Tom: E
E |-----------------------------------5-5|
B |-0------0--------------------------7-7|
G#|-------3--1p0-------------------7-----|
E |-----2--------2p0---2-2/7-7-7-9-------|
B |0--4--------------4-------------------|

E |-------------------------5-7-7/5--[12]|
B |---------------------7-9-7-9-9/7--[12]|
G#|-----------------7-8-7-8----------[12]| B7 E
E |/4-4-4-4-4-5-7-7-7-9--------------[12]|
B |/5-5-5-5-5-7-9-9------------------[12]|

F# B F# B
Toda vez que eu fao moda, a passarada gorjeia
E B7 E
At as aves noturnas, cantam mais pra lua cheia
B7 E B7 E
E a lua agradecida, muito mais ainda clareia
A E A E F#
Minha viola afinada, canta igual uma sereia
E |-------------| E |-----------|
B |-------------| B |-----------|
G#|2-2-3-2------| G#|-----------|
E |2-2-4-2-2-0--| E |----2-----5|
B |--------4-2-0| B |0h4---4/7--|
E o meu serto vai sorrindo
E B7 E B7 E
Enquanto a gente ponteia

Fao parte desse quadro, e a sorte me presenteia


Sou um filho da natureza, mas me sinto um gro de areia
Diante de tanta beleza, a minha mente vagueia
Por que ser que ainda existe gente que odeia
Sabendo que nesse mundo, s se colhe o que semeia

Quem nega que deus existe, cego e se desnorteia


Eu sinto a sua presena em tudo que me rodeia
Do bramido da cascata ao zumbido das abelhas
No ribeiro de gua limpa, que no vale serpenteia
At o A positivo, que corre nas minhas veias

L fora luz do luar, no rancho luz de candeia


A orquestra da natureza, vem cantar na minha aldeia
Urutau canta na mnima, e o Cabor na colcheia
Sei que Deus sertanejo, e a minha f no bambeia
Glria ao pai no meu serto, na cidade a coisa feia

8
A Vida um Torneio
Baltazar Violeiro & Matinho
Tom: D
|-----------2x-----------|
D |------------------------|------------------------|
A |---------0----0------0--|---------0------0-------|
F#|3-1----------1----1-3--3|8-7-----7---------------|
D |----4-2----2----4-------|----9-7----7---9--------|
A |--------4---------------|-------------9--9--9-8-8|

D |------------------------|-------------------[12]|
A |---------0----0------0--|-----------------7-[12]|
F#|3-1----------1----1-3--3|8-7----------7-8---[12]|
D |----4-2----2----4-------|----9-7--7-9-------[12]|
A |--------4---------------|-------------------[12]|

D A7 D
A vida um torneio, tabelas, pontos corridos
A7 D
Pro pobre a coisa t feia, pro rico t decidido
E A7 E A7
Conta quem tem mais dinheiro, o pobre est perdido
G A7 D
Se o pobre ganha um torneio chamado de bandido

Mulher de rico madame, mulher de pobre do lar


O rico vai pra Miami, o pobre vai trabalhar
Conta quem tem mais dinheiro, o pobre est perdido
Se o pobre ganha um torneio chamado de bandido

Sem o pobre ningum vive, o rico est excludo


Se for pr a mo na massa, o rico est perdido
Conta quem tem mais dinheiro, o pobre est perdido
Se o pobre ganha um torneio chamado de bandido

9
A Viola e A Caneta
Joo Mulato & Pardinho Moacyr dos Santos e Paraiso

Tom: E
E |------------------------------------------------------------------------|
B |---9-7---10-7-9-----9-7-9-10-7-9-----9-7h9p7----------0---------0-------|
G#|-7-8-7---10-7-8---7-8-7-8-10-7-8---7-8-7h8p7----7-3-----8-7-3-----1-[12]|
E |-7----------------7----------------7------------7-4-----9-7-4-----2-[12]|
B |0-------0--------0----------------0-----------0------0---------0--------|

E B7 E
Eu vou falar a verdade, agora na batata
B7 E
Se eu estiver mentindo, quero que algum rebata
B7 E
a verdade do caipira, no sou nem um diplomata
B7 A E
Tem bicho se acabando de tanto que gente mata
B7 E
Porque esto destruindo os nossos rios e cascatas
B7 A E B7 E
E pra judiar da terra, tem machado e motosserra, destruindo nossas matas

triste ver um irmo, entre ratos e baratas


Tem gente comendo o lixo, que est no fundo da lata
O trabalhador s perde, no ganha e nem empata
O pobre est amarrado, eu cheguei na hora exata
um n que o governo se quiser ele desata
Porque ento tanta pobreza, num pas que tem riqueza, muito ouro e muita prata

Minha moda deixou rastros, foi lambada de chibata


No fiz moda de amor pra cantar em serenata
Defendi um povo pobre, que tem gente que maltrata
Pra confirmar o que eu disse, assim que arremata
Aqui s ganha dinheiro essa turma da gravata
Com a viola e caneta, meto a boca na trombeta, pra acabar com essa mamata

10
A Viola e A Cruz
Marcos Violeiro & Cleiton Torres Marcos Violeiro

Tom: E
E |----------------------------------------|----------------|
B |-----------0-2-2/3---5-7-5--------------|----------------|
G#|---------1-0-1-1/3---5-6-5-6--5-3--1/3-3|---------0-1-0--|
E |------0--2-----------------7--5-4--2/4--|------2--0-2-0-2|
B |0-2-4-----------------------------------|0-2-3----------3|

E |------------------|----------7------------------|
B |-----------0-2-2/3|4-4-7-9---9-7----------------|
G#|---------1-0-1-1/3|3-3-7-8-------8-7------------| E7
E |------0--2--------|------------------9-7-5-4-2-0|
B |0-2-4-------------|-----------------------------|

E7
Bendita seja a viola, que fez de mim quem eu sou
A
Ela da mesma madeira, da cruz que Jesus amou
B7
Que encostada no meu peito, s semeia poesia
E B7 E
Destri todas as tristezas, e constri s alegria
F# B7
O mestre caiu trs vezes e conseguiu levantar
E
No por um simples tombo, que eu vou deixar de cantar

Vou ser o mesmo que eu era, pai amigo e cantador


Quem me acenar com dio, vou responder com amor
Quem me atirar uma pedra vou devolver uma flor
Pra quem estiver sofrendo, serei remdio pra dor
Nas trevas de muitas eu vidas pretendo ser a luz
O mestre ser meu guia e a viola minha cruz

Seja cedro ou seja pinho, jacarand ou marfim


Mesmo de qualquer madeira, ela faz parte de mim
Nas mensagens que eu mando sem censura e sem receio
Eu falo das coisas boas que o meu corao t cheio
No quero ver sobre ns, desiluses e fracassos
Enquanto eu tiver voz, quero a viola nos braos

11
A Volta do Filho
Tio do Carro & Odilon Tio do Carro e Jos Caetano Erba

Tom: A
E |/09--9--9--9-10-10-12--14/0---5-5-5-4---5|
B |/10-10-10-10-12-12-14---------7-7-7-5-7-5|
G#|--------------------------------------6-5|
E |-----------------------------------------|
B |-----------------------------------------|

E |/4-4-4-4-5-5-7--9/0---0-0-0--------5|
B |/5-5-5-5-7-7-9--------2-2-2-0h2p0--5|
G#|-----------------------------------5|
E |-----------------------------------5|
B |------------------------------------|

A D A
Mame eu estou voltando, no posso ficar aqui
E
Saudade est me matando desde o dia que eu parti
B E
Eu no mandei o retrato que um dia eu te prometi
B E
No comprei meu terno novo porque eu no recebi
A E D A E A
Com o corao em brasa, mame eu volto pra casa do jeitinho que sai

A noite eu estou dormindo, no fundo da construo


Eu estou passando frio sem coberta e sem colcho
A minha roupa surrada, no tem que prega um boto
Um velho radio quebrado, j nem muda a estao
Ele s faz sinfonia, com a saudade que judia, na onda do corao

Mame a sua casinha, a minha grande manso


Vejo ela arrumadinha na minha imaginao
A panelinha de barro no cantinho do fogo
J estou sentindo o cheiro do tempero do feijo
No velho pano de prato, ainda vejo o formato e o jeitinho de suas mos

nesta casinha pobre que minha mezinha mora


Quem tem mame tem rainha, tem carinho a toda hora
meu caquinho de gente, mas eu sei que ela me adora
Eu sou o seu filho pobre que um dia foi embora
Mas agora estou de volta, mame vem abrir a porta pro filhinho da senhora

12
A Volta do Seresteiro
Zilo & Zalo Zalo e Benedito Seviero

Tom: D
E |2-3-5-7-7-10-10-12-12--8-10-7|10-10-10--9--9-5-5-7-7-3-3-2|5-5-4-5-2|
B |3-5-7-8-8-12-12-13-13-10-12-8|12-12-12-10-10-7-7-8-8-5-5-3|7-7-6-7-3|
G#|-----------------------------|----------------------------|---------|
E |-----------------------------|----------------------------|---------|
B |-----------------------------|----------------------------|---------|

D D7 G A D
Companheirada eu aqui estou de novo, foi a saudade quem me obrigou voltar
A D
Quem foi criado pelos braos desse povo, em outros cantos nunca pode acostumar
D7 G A D
Vocs bem sabem a razo que eu fui embora, e at jurei de nunca mais voltar aqui
A E A D
Se a mulher que mais amei com outro mora, s Deus quem sabe quanta dor eu j senti

Porm agora junto com meus velhos amigos, s ei de amar essa lua cor de prata
Essa viola que sempre sofreu comigo, me acompanha nesta nova serenata
Revendo ao alto a linda luz da lua cheia, e ouvindo as vozes dos meus velhos companheiros
Ao som dolente desta viola que ponteia, eu canto as magoas de um pobre seresteiro

Hoje em meu peito tem profunda cicatriz, o meu destino amar quem no me quer
Eu sei que ela com outro vive feliz, eu no consigo gostar de outra mulher
E quando passo no lugar que ela morava, eu no suporto nem olhar mais na janela
Relembro as tardes que ela sempre me esperava, e as horas alegres que passei, ao lado dela

13
Anel de Formatura
Chico Serra & Pantanal Miguel Costa e Z Goiano

Tom: A
E |-9-7--9-10-7-5-4-10--9|-9-7--9-10-7-5-4-/10--9|
B |10-9-10-12-9-7-5-12-10|10-9-10-12-9-7-5-/12-10|
G#|----------------------|-----------------------|
E |----------------------|-----------------------|
B |----------------------|-----------------------|

A E7 A E7
O chiar da chaleira no fogo de lenha, todas manhas vinha me despertar
D E7 A
Fingia que ainda estava dormindo, s pra ver mame sorrindo me acordar
A7 D
Afagar meu rosto e pentear meus cabelos, me vestir com gosto e depois me abraar
A E7
Dizendo eu te amo vai com Deus meu filho, meu Deus como eu era feliz com aquilo
A
Corria pro banco do grupo escolar
E7 A E7 A
Domingo e feriado no ia pra escola, era jogo de bola, bolinha e boto
D A E7
Meu pai meu heri, meu melhor amigo, no quintal de casa brincava comigo
A
Empinando pipa e jogando pio

Ao final da aula eu voltava pra casa, o almoo ainda estava quente no fogo
Com gua fresquinha tirada da mina, enchia o corote com satisfao
Corria pra roa onde meus pais estavam, levando agua fresca em um garrafo
Pra matar a sede e o calor do sol quente, papai e mame corria contente
Pra sombra de velho p de jambolo

E assim entre abrao, trabalho e suor, carinho e amor, ternura sem fim
Me formei na vida e na faculdade, mas hoje a meu filho no dou nem a metade
Do amor que meus pais sempre deram pra mim

No dou ao meu filho o amor verdadeiro, s dou o dinheiro da alta mesada


Em meu escritrio meu tempo corrido, estou dividido na vida agitada
Meu filho no brinca comigo na terra, s games de guerra ele sabe jogar
Tem modernidade em computador, mas falta pra ele carinho e amor
Isso meu dinheiro no pode comprar

Lembrando meus pais com muita ternura, o anel de formatura olho emocionado
Ele representa um grande tesouro, no pelo peso macio do ouro
Mas sim pelo amor com que foi conquistado

14
Arreio de Prata
Tio Carreiro & Pardinho Teddy Vieira, Roque Jos de Almeida e
Mrio Bernardino
Tom: E

Introduo
E |------------------------------------------|
B |-0------0----0-----0-----0----0----0------|
G#|-----6----5----------------5--------------|
E |---0-----------7-----5----------7----4-2-0|
B |0------0----0-----0-----0----0----0-------|

E |-------------------------------|
B |4-4-4-4-4-5-7-7-7-5-4-4-4-7-9-7|
G#|3-3-3-3-3-5-7-7-7-5-3-3-3-7-8-7|
E |-------------------------------|
B |-------------------------------|
So Jos do Rio Preto muito tempo se passou

E |-------------------------------------|
B |4-4-4-4-4-5-7-7-5-4-2-0--------------|
G#|3-3-3-3-3-5-7-7-5-3-2-0-0-2-2/7--7--0|
E |------------------------0-2-2/7-7--0-|
B |-------------------------------------|
O seu Oscar Bernardino com a boiada ele viajou

E |-----------------------------|
B |-----------------------------|
G#|3-3-3-3-3-3-5-5-5-3-1-1-1-0-3|
E |4-4-4-4-4-4-5-5-5-4-2-2-2-0-4|
B |-----------------------------|
Num transporte a Mato Grosso na comitiva levou

E |----------------------------|
B |----------------------------|
G#|0-0-0-0-0---1--1-0-------0-0|
E |0-0-0-0-0-2-2--2-0-2-0---0-0|
B |----------4--------4-2-0----|
Um filho de criao que na lida ele ensinou

E |-----------------------------|
B |--------------------------4-4|
G#|0-0-0-0-1-3-5-5-5-3-1-0---3-3|
E |0-0-0-0-2-4-5-5-5-4-2-0-2----|
B |------------------------4----|
Com seu arreio de prata que no rodeio ganhou

E |--------------------------------|
B |4-2-0-----5-4/5--4--------------|
G#|3-1-0-2-0-5-3/5-3--3-3-3-2-2-0-0|
E |------1-0----------4-4-4-2-2-0-0|
B |--------------------------------|
O menino ia garboso no potro que ele amansou

15
Aquele arreio de prata era o que mais estimava
Somente em dias de gala que em Rio Preto ele usava
Nessa viagem seu Oscar recomendava
Pra zelar bem do peozinho que recente se formava
O menino de ponteiro o berrante repicava
O Itamar e o Tiozinho, de perto lhe vigiava

A mania do menino seu Oscar sempre lembrava


Na hora do rebulio com a vida no contava
E foi l no pantanal quando ningum se esperava
Uma ona traioeira numa res ela pulava
A boiada deu um estouro que o serto se abalava
Parecia que o mundo, nessa hora se acabava

Os ares do campo virgem cheirava a chifre queimado


O menino dando grito tentando segurar o gado
A barrigueira partiu do cavalo foi jogado
Nos cascos dos cuiabanos pelos campos foi pisado
Quando a boiada passou viram o peozinho estirado
Com seu arreio de prata, estava morto abraado

O seu Oscar Bernardino sua alegria acabou


Pegou o arreio de prata pro Antnio ele falou
Esse arreio do menino deixe com ele por favor
Na sobra de um Angiqueiro uma cruzinha fincou
E na cruz fez um letreiro aqui jaz um domador
Que apesar da pouca idade, nenhum peo com ele igualou

16
Aurora do Mundo
Zilo & Zalo Goi

Tom: G
E |3-3-5-7-7-7--3-5-7-8-8-8--7-8-9-10-10-10--8-7-5-3|
B |-------------------------------------------------|
G#|3-3-4-6-6-6--3-4-6-8-8-8--6-8-9-10-10-10--8-6-4-3|
E |-------------------------------------------------|
B |-------------------------------------------------|

G C D7 G
Quem teve os amores que tive na vida, gente entendida na mgoa e na dor
D7 G
E sabe por certo que um doce carinho, s vezes espinho em forma de flor
F A# G C
Estando sofrendo aqui na cidade, A louca saudade de um certo amor
A D7 G
Busquei o remdio pra mente saudosa, Na vida gostosa do interior

Cruzei os cerrados, chapadas e serras, Pro lado das terras de Minas Gerais
Vi campos floridos e belos cenrios, Ouvi os canrios nos macaubais
Fumaa distante no azul do horizonte, Na encosta do monte, formando espirais
Vi tudo que amo na tranquilidade, Mas minha saudade ainda era mais

Passei uma noite no Rancho Amizade, E vi na saudade o comeo do fim


A chuva caa naquele tugrio, Num triste murmrio por sobre o capim
A noite avanava e eu no dormia, Agora sabia que amar era assim
Por fim me entreguei ao sono profundo, E a aurora do mundo caiu sobre mim

Voltei pra cidade, fiquei na agonia, At que um dia meu bem encontrei
Beijei a menina com todo carinho, E aquele rostinho acariciei
Cantando seguiu-me na linha da vida, Na estrada da florida que eu lhe mostrei
Porque ela sabe que agora so minha, s minha rainha eu sou o seu rei

17
VERSO 2

Tom: B
E |---11-12-14-12-11----------7-7-6-4-6|-6-7-12-11------------4-4-2-0-2|
B |12----------------14-12-11-9-9-7-5-7|7----------14-12-11-9-5-5-4-2-4|
G#|------------------------------------|-------------------------------|
E |------------------------------------|-------------------------------|
B |------------------------------------|-------------------------------|

E |2-4-5-5-7--9--9--9-7--4-7-4-5-6-6-4-2-2-0|
B |4-5-7-7-9-10-10-10-9--5-9-5-6-7-7-5-4-4-2|
G#|-----------------------------------------|
E |-----------------------------------------|
B |-----------------------------------------|

B E F#7 B
Quem teve os amores que tive na vida, gente entendida na mgoa e na dor
F#7 B
E sabe por certo que um doce carinho, s vezes espinho em forma de flor
A D B E
Estando sofrendo aqui na cidade, A louca saudade de um certo amor
Db F#7 B
Busquei o remdio pra mente saudosa, Na vida gostosa do interior

Cruzei os cerrados, chapadas e serras, Pro lado das terras de Minas Gerais
Vi campos floridos e belos cenrios, Ouvi os canrios nos macaubais
Fumaa distante no azul do horizonte, Na encosta do monte, formando espirais
Vi tudo que amo na tranquilidade, Mas minha saudade ainda era mais

Passei uma noite no Rancho Amizade, E vi na saudade o comeo do fim


A chuva caa naquele tugrio, Num triste murmrio por sobre o capim
A noite avanava e eu no dormia, Agora sabia que amar era assim
Por fim me entreguei ao sono profundo, E a aurora do mundo caiu sobre mim

Voltei pra cidade, fiquei na agonia, At que um dia meu bem encontrei
Beijei a menina com todo carinho, E aquele rostinho acariciei
Cantando seguiu-me na linha da vida, Na estrada da florida que eu lhe mostrei
Porque ela sabe que agora so minha, s minha rainha eu sou o seu rei

18
Bero de Couro
Z Mulato & Cassiano Z Mulato e Cassiano

Tom: B
E |4-4-4-4-7-7-6-6--9--9--11-11-6-9-7-7-7|
B |5-5-5-5-9-9-7-7-11-11-----------------|
G#|-----------------------10-10-5-8-7-6-7| F#7 B
E |--------------------------------------|
B |--------------------------------------|

B F#7 B
Sou um privilegiado, nasci em bero de couro
A E F#7 B
Em nada nada eu invejo quem nasce em bero de ouro
F#7 B E B7 E
Essa minha liberdade, o meu maior tesouro
F#7 B
Eu canto simplicidade e a passarada faz coro
F#7 B
Perdoar o que prego, e pra dominar meu ego
F#7 B E B
Se for preciso carrego pra casa algum desaforo

Quem nasce em bero de ouro, raramente pode ver


O sol brotar radiante, logo aps o amanhecer
E o canto da passarada, no lhe traz nenhum prazer
Por ter a mente embotada, pela sede de poder
No v que na natureza, est a maior riqueza
Sem ostentar realeza agente rei sem saber

J tenho at meu castelo, em rancho no fim da linha


Feito s de barro e palha, onde eu sento de tardinha
No baldrame do palcio pra assuntar as andorinhas
A saracura trs pote as araras e as rolinhas
Neste cho abenoado, sou um rei considerado
Pra completar meu reinado s me falta uma rainha

Meu trono um cupim chato, no alto de um outeiro


Em baixo de um pau dleo, me d sombra o dia inteiro
Cercado de passarinhos, os meus fieis companheiros
Dali envio mensagem de caipira verdadeiro
A viola me auxilia, e atravs da poesia
Consolido a monarquia de dom Z Ningum Primeiro

19
Berrante de Ouro
Liu & Lu Carlos Cezar e Jos Fortuna

Tom: E
E |11-11-11-11--9-5-2-11--9-5-2---9-7------9-7-------------------------------|
B |12-12-12-12-10-7-4-12-10-7-4--10-9-9-4-10-9-9-4--4-2-0-2-0---2-0---0-0-2-0|
G#|-----------------------------------8-3------8-3--3-1-0-1-0-1-1-0-0-0-0-1-0|
E |-----------------------------------------------------------2-----0--------|
B |--------------------------------------------------------------------------|

E B7 E B7
Nesta casinha junto ao estrado, faz muito tempo eu parei aqui
A B7 A B7 E
Vem minha velha vamos recordar, quantas boiadas eu j conduzi
B7 E E7 A
Fui berranteiro e ao me ver passar, voc surgia me acenando a mo
B7 E B7 E
At que um dia eu aqui fiquei, preso no lao do seu corao

B7 E B7
Veja ali est, o meu berrante no mouro do ip
A B7 A B7 E
Vou cuidar melhor, porque foi ele que me deu voc

Me lembro o dia que eu aqui parei, naquela viagem no cheguei ao fim


Foi a boiada e com voc fiquei, e os pees dizendo adeus pra mim
Vem minha velha veja o estrado, e o berrante que uniu ns dois
Nuvens de p que para traz deixei, recordaes do tempo que se foi

Naquele tempo que bem longe vai, no meu berrante repicando alm
Pertos de choro vindos do serto, ao recordar vivo a chorar tambm
No de ouro o meu berrante no, mas para mim ele tem mais valor
Porque foi ele que me deu voc, e foi voc que me deu tanto amor

20
Boiada
Liu & Lu Z Paioa

Tom: E
E |-------------------------|----------------------------|
B |----5-4-4-4--------------|4-3-4-5-5-5-9-7-7-9-10-9--/9|
G#|0-1-5-3-3-3-3-5-5-5-1-1/3|3-2-3-5-5-5-8-7-7-8-10-8--/8|
E |0-2---------4-5-5-5-2-2/4|----------------------------|
B |-------------------------|----------------------------|

E B7 E
Boiada, triste boiada, na estrada cheia de p
B7 E
Boiada o meu corao, tambm caminha to s
A B7 E
Levando junto a saudade, velha esperana guardada
B7 E
Vai carregando a tristeza, a pao lento na estrada

A lua me beija o rosto, sereno me faz carinho


O vento faz serenata, a onde eu durmo sozinho
As estrelas so meus guardas, posso dormir sossegado
E quando elas vo embora, o sol vem juntar meu gado

Sai de casa menino, deixei chorando meus pais


Cresci no mundo sozinho, e no voltei nunca mais
A irm deve estar casada, a me que nunca me esquece
Meu pai de certo est velho, o irmo j nem me conhece

As vezes na despedida, eu tenho que disfarar


Quando uma lgrima rola, caindo do meu olhar
A poeira vai levantando, no cu formando um letreiro
Se espalha em letras de p, lembrana de um boiadeiro

21
Buscando a Felicidade
Liu & Lu Tupy e Itapu

Tom: A
E |----7-7-7-7-10--9-5---4-5-6-7-7-7-5-4-----4-5-6-7h9p7|
B |--5-8-8-8-8-12-10-7---5-7-8-9-9-9-7-5-5---5-7-8-9----|
G#|-5------------------------------------5-5------------|
E |5---------------------------------------5------------|
B |-----------------------------------------------------|

A E A E A
Buscando a felicidade, a minha infncia perdi
A7 D E A
J se foi a mocidade, tenho que parar aqui
E A E A
S me resta agora a vida, que um dia ir tambm
A7 D E A
Se a felicidade existe, a minha est com algum

E A E A
J cansei de procurar, j cansei, j fiz de tudo e porque
A7 D E A
Ser que na vida inteira, no fiz por te merecer

Amores j no sei quantos, em minha vida passou


A paz que tanto procuro, minha alma no encontrou
Dinheiro quanto dinheiro, que at a conta perdi
O que mais eu precisava, ainda no consegui

22
Caboclo Centenrio
Juliana Andrade & Jucimara Dino Franco e Nh Chico

Tom: B
E |------------------------------------------------------------|
B |------------------------------------------------------------|
G#|3-2--------------------------------2-3---------------------3|
E |----4-2-2-0-0----------------0-2-4-------0-1-2-0---------2--|
B |--------------4-4-0-4-2--2-4-----------4---------4-2-0-4----|

B F#7 B F#7 B
No pretendo ser famoso, nem quero ser milionrio
F#7 B
Moro longe da cidade, num ranchinho solitrio
F#7 B
No sou patro de ningum tambm no sou operrio
F#7 B
O serto me d de tudo no dependo de salrio

E |---------------------------------------------------|
B |---------------------------------------------------|
G#|3-2----------------------2------------------------3|
E |----4-2--0-2-----------4---2----0-1-2-0---------2--|
B |-------------4--0-4-2---------4---------4-2-0-4----|

Pra vender minha colheita, no tenho intermedirio


Sei fazer os meus negcios, no preciso de empresrio
Eu no sou inteligente mais tambm no sou otrio
Eu no caio em arapuca nem no conto do vigrio

No meu rancho de barrote, tenho s o necessrio


Eu no uso anel de ouro, nem relgio calendrio
A floresta meu jardim a lagoa meu aqurio
A florada do ip marca meu aniversrio

Um cantinho do meu rancho me serve de santurio


Onde fao minha prece ao bom jesus do calvrio
Toda noite eu rezo um tero a inteno de um missionrio
As dez cordas da viola so contas do meu rosrio

E assim vou levando a vida, e cumprindo meu fadrio


Canto moda sertaneja s de tema imaginrio
Escrevo versos de amor sem pegar no dicionrio
Todo mundo assim me chama de caboclo centenrio

23
Campeo do Pealo
Pardinho & Pardal Sulino e Sebastio Vctor

Tom: B
E |------------------------------|
B |--4-4-4-2----------2----------|
G#|2-3-3-3-2-3-2-2--3-2-3-2------|
E |2---------4-2-2--4---4-2-2-0-2|
B |-------------------------4-2-4|
A gente quando criana aprende aquilo que v

E |-----------------------------|
B |-----------------------------|
G#|2-2--------------------------|
E |2-2-2-2-0-------0-2-2-0------|
B |----4-4-2-0-0-0-2-4-4-2-0-0-0|
Meu pai era boiadeiro eu tambm queria ser

E |-------------------------------|
B |------------------------2-2----|
G#|0-0-2-3-3-2-0-----2-2-2-2-2-3-2|
E |0-0-2-4-4-2-0-0---2-2-3-----4-2|
B |--------------2----------------|
Com sete anos de idade, j comecei aprender

E |-------------------------------|
B |-------------------------------|
G#|-------------0-0---------------|
E |0-0--0-0-----0-0-2-2--2-0------|
B |2-2--2-2-0-0-----4-4--4-2-0-0-0|
Laando alguns bezerrinhos na hora de recolher

E |-------------------------------|
B |-------------------------------|
G#|0-0-2-3-3-2-0-----2-2----------|
E |0-0-2-4-4-2-0-0---2-2-2-2-0----|
B |--------------2-------4-4-2-0-0|
Cheio de satisfao, meu pai pegava dizer

E |------------------------------------------------|
B |--4--4-4-4-2-5-5-4-2----------------------------|
G#|2-3--3-3-3-2-5-5-3-2-3-2-----------0-0----------|
E |2--------------------4-2-2-0-0-0---0-0---2-0----|
B |-------------------------4-2-2-2-------0-4-2-0-0|
Este menino a cavalo vai ser o campeo do pealo, no dia que ele crescer

Quando foi um certo dia a minha me teve cime


Meu filho no lida mais seu pai e os pees que se arrumem
Se tu formar pra doutor, um grande cargo assume
No fica um peo jogado no campo e pelo batume
Vou te botar de castigo, se acaso tu no se aprume
Se um dia eu te ver jogado seu pai var ser o culpado, por no tirar teu costume

24
Um dia fugi de casa varando o serto adentro
Me ajustei com um boiadeiro por nome Joo Nascimento
Fomos buscar uma boiada pras bandas do livramento
O boiadeiro dizia que eu era de bom talento
No falo por ser gabola e nem por convencimento
Jogava o lao no escuro e notava o marro asseguro, pelo ringido dos tentos

Depois que eu sai de casa passou dez anos ou mais


Fomos buscar uma boiada l no serto de Gois
Quando cheguei no rio grande, a enchente estava demais
Ali tinha uma boiada, com dez pees e capataz
Quando o rio foi abaixando, a balsa encostou no cais
A boiada pulou ngua eu o peo nesta hora amarga jogou seu burro atrs

O burro estava cansado, no aguentou a correnteza


O peo gritou por socorro eu acudi com destreza
Fiz trs rodilhas no lao, joguei com toda proeza
Lacei pro meio do corpo, no sei se foi pro proeza
Ao trazer ele na praia, foi grande a minha surpresa
O peo gritou surpreendido me abrace filho querido, voc foi minha defesa

25
Cano do soldado
Tio Carreiro & Pardinho Carreirinho

Tom: G
D |-------------------|-------------------|-------------|
A |-------------------|-------------------|-------------|
F#|--6-6-6-5-5-5------|--6-6-6-5-5-5------|-------------| G D7 G
D |7-------------7-7-7|7-------------7-7-7|0-0-2-0------|
A |-------------------|-------------------|--------3-2-0|

D7 G D7 G
Do norte eu sai, com quinze anos de idade
A D7 A D7
Pra conhecer uma cidade, a paulista capital
C G D7 G
E ser um policial, era meu sonho adorado
Em
Quando me vi fardado, senti-me muito feliz
D7 G D7 G
Pra defender meu pais, o dever de um brasileiro
E7 Am D7 G
E assim ganhei dinheiro, fui feliz e tive sorte
C G D7 G
Para mandar para o norte, pra buscar minha mezinha
D7 G D7
Que a tempos eu deixei um dia, e pra l ficou sozinha
G
E que a muitos anos, ns no se via

Um amigo me avisou, que fosse ao cemitrio


Que l no necrotrio, se encontrava uma velinha
Que documento, no tinha, apenas um retrato
Com meu nome exato, para l segui
Quando eu a vi era minha me querida
Que arriscando a vida, saiu a minha procura
Passou fome amargura, dormindo pelas caladas
Sem dinheiro quase nua, numa fria madrugada encontraram morta, jogada na rua

A cena mais triste, que enfrentei na minha vida


Foi ver minha me queria, inerte num caixo
O meu pobre corao quis saltar fora do peito
Meus sonhos foram desfeitos, to feliz podia ser
Assim mesmo ouvi dizer uma pessoa qualquer
No corao de mulher, diz que no existe amor
Minha me, sofreu horror, deu a vida ao meu respeito
Vivo triste pelas ruas
Tirei o luto do peito mais no corao, continua

26
Carreador
Tio Carreiro & Praiano Jos Fortuna e Paraiso

Tom: G
e|----5-/5-5-5-3-3-1-1-0-3--0|-----7-/7-7-7-5-5-3-3-2-5|
B|--3-6-/6-6-6-5-5-3-3-1-5-1-|---5-8-/8-8-8-7-7-5-5-3-7|
G|-4-------------------------|--6----------------------|
D|5--------------------------|/7-----------------------|
A|---------------------------|-------------------------|
E|---------------------------|-------------------------|

e|0-2-3---------------------|
B|1-3-5-3---1-0---1-3-5----3|
G|------4---2-0---2-4-5---4-|
D|--------------------------|
A|--------------------------|
E|--------------------------|

G G7 C
Carreador j corrodo pelo tempo
D7 G
As eroses de enxurradas que passaram
Am
Foram apagando rastros fundos de boiada
D7 G
E os velhos riscos do meu carro que ficaram

G7 C
Cruza em meu sonho sempre esse carreador
G D7 G
Onde a saudade vai buscar aquele amor

Grita o carreiro bem cedinho com a boiada


E o velho carro a cantar no carreador
Traz a colheita da semente que um dia
Ele levou para o espigo se encher de flor

A minha vida hoje um carro triste


Que vai passando carregado de paixo
Rodando vai no carreador do meu destino
Pra despejar na tulha do meu corao

Verso Para Viola

D |-----7--/7-7-7-5-5-3-3-2-5--2|------9--/9--9--9-7-7-5-5-4-4/7|
A |---5-8--/8-8-8-7-7-5-5-3-7-3-|---7-10-/10-10-10-9-9-7-7-5-5/9|
F#|--5--------------------------|--7----------------------------|
D |/5---------------------------|/7-----------------------------|
A |-----------------------------|-------------------------------|

D |2-4-5---------------------|
A |3-5-7-5-3-2--2-3-5-7-5-3-2|
F#|------5-3-1--1-3-5-6-5-3-1|
D |--------------------------|
A |--------------------------|

27
Carro de Boi
Ronaldo Viola & Joo Carvalho Donizete Santos e Ronaldo Viola

Tom: E
E |7-7-7-7-7-5-5/7-7-7/10-10-9-9-7/9-9-5-5|9-9-9-9-9-7-7/9-9-9/12-12-11-11-9/11-11-7-7|
B |---------------------------------------|-------------------------------------------|
G#|6-6-6-6-6-5-5/6-6-6/10-10-8-8-6/8-8-5-5|8-8-8-8-8-7-7/8-8-9/12-12-10-10-8/10-10-7-7|
E |---------------------------------------|-------------------------------------------|
B |---------------------------------------|-------------------------------------------|

E |9-9-5-5-9-9-7-5-4-5-4|4-4-7-7-5-5-4-2-4|
B |---------------------|5-5-9-9-7-7-5-4-5|
G#|8-8-5-5-8-8-7-5-3-5-3|-----------------| B E
E |---------------------|-----------------|
B |---------------------|-----------------|

E E7 A E
Olhando o carro de boi, eu fiz a comparao
A E B E
Comparei a minha vida, ao velho carreto
A
O meu lamento igual, o gemido de um coco
F# B
Que vai pelo cho do mundo, gemendo na ingratido

E A E
Carro de boi, que levou carga pesada
B E B E
Meu peito tambm carrega, saudade da minha amada
B E B E
Saudade da minha amada, saudade da minha amada

As rodas do velho carro, deixaram marcas no cho


Num passado bem distante, que hoje recordao
Assim a minha vida, nas marcas da iluso
Sou roda que ainda roda, na estrada solido

Mais esse carro de boi, no pode mais carrear


Madeira velha e quebrada, no serve pra trabalhar
Eu tambm estou sentindo a minha voz acabar
O tempo o carreiro, que em breve vai me encostar

28
Catimbau
Tio Carreiro & Pardinho Carreirinho

Tom: B
E |---------------------------------
B |7-7-7-7-7---7--------------------
G#|7-7-7-7-7-8-7-7-7-7-8-8-7-5-5/8-8
E |----------9---7-7-7-9-9-7-6-6/9-9
B |---------------------------------
Tive lendo um romance de um casal de namorado

E |-----------------------------|
B |9-9-9-9-9-7-9---7-7-7-7---7--|
G#|8-8-8-8-8-7-8-7-7-7-7-7-8-7-7|
E |--------------7---------9---7|
B |-----------------------------|
De Rosinha e Catimbau dois jovens apaixonados

E |---------------------------------
B |7-7-7-7-----7--------------------
G#|7-7-7-7-8-8-7-7-7-7-8-8-7-7-3-5-2
E |--------9-9---7-7-7-9-9-7-7-4-6-2
B |---------------------------------
Rosinha famlia rica Catimbau era um coitado

E |-------------------------------|
B |2-2-2-2------------------------|
G#|2-2-2-2-3-3-2-2-0-0------------|
E |--------4-4-2-2-0-0-2-2-0-0----|
B |--------------------4-4-2-2-0-0|
Capataz de uma fazenda mais trabalhador honrado

E |-------------------------------|
B |-------------------------------|
G#|3-3-3-3-3-2-3-2-2-2-2-2-2-0-2-0|
E |4-4-4-4-4-2-4-2-2-2-2-2-2-0-2-0|
B |-------------------------------|
Adomava burro bravo no lao era respeitado

E |-------------------------------------|
B |-------------------------------------|
G#|0-0-0-0-0-------2-3/5-5-3/5-3-2-2-0--|
E |0-0-0-0-0-2-2-0-2-4/6-6-4/6-4-2-2-0-2|
B |----------4-4-2---------------------4|
Um caboclo destemido, ai por todo era admirado

29
Catimbau encontrou Rosinha l no alto do espigo
Por se ver os dois sozinhos quis aproveitar da ocasio
Catimbau pediu um beijo Rosinha disse que no
Ela bem tava querendo mais no deu demonstrao
De tanto que ele insistiu ela deu uma deciso
Vamos deixar pra outro dia, ai para as festas de so Joo

Passaram esses cinco ms chegou a espera do dia


Rosinha estava mais linda com uma flor parecia
A festa estava animada todos com grande alegria
Quando o pai de Rosa veio perguntando quem queria
Mostrar cincia no lao pra laar o boi ventania
E os vaqueiros amedrontados, ai todos eles se escondia

Chamaram ento Catimbau mais ele no atendeu


Rosinha disse meu bem vai fazer o pedido meu
Catimbau corajoso mais nessa hora tremeu
Depois de um sorriso amargo pra Rosinha respondeu
Eu vou laar esse touro pra te mostrar quem sou eu
Mais depois eu quero o beijo que voc me prometeu

Catimbau mais que depressa no seu bragado amonto


Chegou a espora no macho e a laada ele aprontou
A laada foi certeira que o povo se admirou
Catimbau foi infeliz o bragado se atrapalho
O lao fez uma volta no seu pescoo enrolou
Com o pealo que o boi deu, sua cabea decepou

Trouxeram a cabea dele Rosinha nela pegou


Chorando desesperada desse jeito ela falou
Catimbau prometi um beijo receba agora eu te dou
Na boca do seu amado tristemente ela beijou
Este o fim de uma histria dando provas que este amor
De Rosinha e Catimbau, que a morte separou

30
Celeiro da Saudade
Juliana Andrade & Jucimara Ronaldo Viola, Juliana Andrade e
Jucimara

Tom: F
D |----------3-8--/12-10----10--------7-5---5--8-12-10|
A |--------5-------------12-----12--------7---10-13-12|
F#|----3-4---------------------11---------------------|
D |3-5------------------------------------------------|
A |---------------------------------------------------|

D |7--8-10-12-10-12-12/15---12-10--9-10/14----10---8---7---4|
A |8-10-12-13-12-13-13/17---13-12-11-12/15------------------|
F#|-----------------------------------------10----8---6---3-|
D |---------------------------------------------------------|
A |---------------------------------------------------------|

F C7 A# F
O corao do matuto um celeiro, que guarda a dor da saudade
C7 A# C7 F
Celeiro de recordaes que ficaram, longe da grande cidade

D |-----------------3|
A |-7-5-3--------3---|
F#|6-4-3---4-3--3--3-| C7 F
D |-------5-3--3-----|
A |------------------|

F C7
O tempo cruel e a distncia impiedosa
A# F
Em versos e prosa revelo cantando
C7
Da infncia to linda apesar de pobre
F
Pra mim era nobre Deus abenoando
F7 A#
A bola de meia, o peo de peroba
C7 F
Catar gabiroba um bornal eu enchia
A# F
Pelote de barro, queimava um estoque
C7 F
Pra usar no bodoque que eu mesmo fazia

31
E no arrebolde toda a madrugada
Apartava a vacada por ser retireiro
Dez lates de leite, punha no carrinho
Levava sozinho fora do mangueiro
E dada a tarefa com os animais
Olhava os sinais da chuva esperada
No velho trator o arado engatava
E o cho preparava na terra tombada

Na grande cidade vivo de salario


Por ser operrio de pouca instruo
Formei a famlia com dificuldade
esta a verdade de um simples peo
Quem vem l da roa precisa ter sorte
Se a palavra sorte no vem no estatuto
S a f em deus e a grande saudade
a realidade de um simples matuto

32
Cerne de Aroeira
Tio Carreiro & Paraso Lourival dos Santos, Jesus Belmiro e
Vicente P. Machado
Tom: E
E |-----------------------|-----------------------|
B |-0----0-----0----------|-0----0-----0----------|
G#|-----3---3-1----3-1p0--|-----3---3-1----3-1p0--|
E |---2---2------2-------2|---2---2------2-------2|
B |4----------------------|4----------------------|

E |--------------------|--------------------|
B |-0------------------|-0------------------|
G#|-----1p0-1p0--------|-----1p0-1p0--------| B A# B
E |---2---------2------|---2---------2------|
B |4--------------4-2-4|4--------------4-2-4|

B
Para chegar nessa terra, vim arriscando a sorte
Bebi gua envenenada, respirei o ar da morte
E B E B B B7 E
Na navalha do destino, vim rastejando na sorte
B7 E
Eu vim trazendo coragem, esperana e brao forte
B7 E
A minha pobre bagagem eu mesmo fiz o transporte

Para entrar na batalha, sai da minha trincheira


Com pingos do meu suor fui apagando a poeira
Com fibra e resistncia, igual cerne de aroeira
Eu sempre segui avante, atravessando barreira
E no mastro da vitria hasteei minha bandeira

Chorei muito no passado, para sorrir no presente


Estou colhendo o fruto onde plantei a semente
A minha mo calejada, minha grande patente
E tudo que hoje tenho, agradeo a deus somente
Porque na luta da vida, eu venci honestamente

Gente que me ve na sombra, tem inveja do que sou


Mas no sabe que o sol muitas vezes me queimou
Nos caminhos que passei, muita gente no passou
Nas lutas que eu venci, eu vi gente que tombou
Precisa ter f em deus para chegar onde estou

33
Cheiro de Gado
Os Dois Violeiros Batista dos Santos e Guilherme Violeiro

Tom: A
E |/14-11----11-----------|---------------------|
B |-------12----12-9-10-11|2-------------------4|
G#|-----------------------|--3-2-3-2----------3-|
E |-----------------------|----------4-2-0---2--|
B |-----------------------|----------------4----|

E |1/2-2--2/5-5--2/4|-----------------------------|/9---9--9-7-6-12-11|
B |3/4-4--4/7-7--4/5|-----------------------------|/11-11-11-9-7-14-12|
G#|-----------------|0---0-1-2-0---------------3/7|-------------------|
E |-----------------|--2---------2-0---------2----|-------------------|
B |-----------------|----------------4-2-0-4------|-------------------|

B F#7 B
Deixei a fazenda l no pantanal, fui pra capital num encontro de elite
F#7 B
Na hora marcada entrei no restaurante, de gente importante e poder sem limite
B7 E F#7 B
J veio um garom com champanhe na taa, mas pedi cachaa pra abrir o apetite
F#7 B
Ento o gerente se aproximou e me perguntou se eu tinha convite

E |---------------------|/9---9--9-7-6-12-11|
B |2-------------------4|/11-11-11-9-7-14-12|
G#|--3-2-3-2----------3-|-------------------|
E |----------4-2-0---2--|-------------------|
B |----------------4----|-------------------|

Eu respirei fundo pra me controlar, e peguei falar qual a minha inteno


Eu vim pra cidade pra fazer negcio, mas no tenho scio, amigo ou patro
Cumpri meu dever e j estou indo embora, s preciso agora de uma refeio
Por este motivo que eu entrei aqui, mas no intendi sua indignao

Por favor compreenda me disse o gerente, que esse ambiente j est reservado
Vou servir almoo pro governador, acho que o senhor no foi convidado
Enfeitei de flores os vasos no cho, pro nosso salo ficar bem perfumado
Senti que as botas que est calando, esta exalando um cheiro de gado

A porta se abriu depois que ele acabou, por ela entrou quem estava aguardando
Vinha o governante bem acompanhado, sentou-se ao meu lado me apresentando
Falou aos presentes em tom altaneiro, este o boiadeiro que vinha falando
Grande pecuarista heri sem nobreza que gera a riqueza que estamos exportando

Eu lhe convidei pra ser homenageado, em nome do estado eu lhe agradeo


No meu gabinete de luxo e beleza, em baixo da mesa guardo com apreso
As botas surradas do meu pai amado, que lembra o passado que eu no esqueo
Pra sentir na sala o cheiro de estrume porque esse perfume pra mim no tem preo

34
Verso Original (2 Instrumentos)

e|/12-9----9------------|---------------------|
B|------10---10--7-7-8-9|--------------------2|
G|----------------------|4------------------2-|
D|----------------------|--7-6-7-6-4-------2--|
A|----------------------|------------7-5-4----|
E|----------------------|---------------------|
E |---------------------|---------------------|
B |---------------------|2-------------------4|
G#|---------------------|--3-2-3-2----------3-|
E |---------------------|----------4-2-0---2--|
B |---------------------|----------------4----|

e|------------------|-----------------------------|-------------------|
B|------------------|-----------------------------|-------------------|
G|------------------|-----------------------------|-------------------|
D|------------------|-----------------------------|-------------------|
A|------------------|-----------------------------|-------------------|
E|------------------|-----------------------------|-------------------|
E |1/2-2--2/5-5--2/4|-----------------------------|/9---9--9-7-6-12-11|
B |3/4-4--4/7-7--4/5|-----------------------------|/11-11-11-9-7-14-12|
G#|-----------------|0---0-1-2-0---------------3/7|-------------------|
E |-----------------|--2---------2-0---------2----|-------------------|
B |-----------------|----------------4-2-0-4------|-------------------|

Deixei a fazenda l no pantanal...


e |---------------------|-------------------|
B |--------------------2|-------------------|
G |4------------------2-|-------------------|
D |--7-6-7-6-4-------2--|-------------------|
A |------------7-5-4----|-------------------|
E |---------------------|-------------------|
E |---------------------|/9---9--9-7-6-12-11|
B |2-------------------4|/11-11-11-9-7-14-12|
G#|--3-2-3-2----------3-|-------------------|
E |----------4-2-0---2--|-------------------|
B |----------------4----|-------------------|

Eu respirei fundo...

35
Cheque Sem Fundo
Marcos Violeiro & Cleiton Torres Roberto Simes e Marcos Violeiro

Tom: A

E |------------------------------4-4-4-4-4------------|
B |5h7p5-5----------5------------5-5-5-5-5-7-5-5-5----|
G#|--------6----------6-5------------------6-5-5-5-6-5|
E |----------7-5-4--------5------------------------7-5|
B |-------------------------7-5-----------------------|

A E7
Dizem que a muitos anos atrs, num lugar existia um sujeito
A
Era um velho e tinha trs filhos, um era n cego dois eram direitos
B
Como era apegado ao dinheiro reuniu os filhos e um trato foi feito
D E A E7
Quando a morte vier me buscar um tanto em dinheiro vocs vo me dar
A
Eu quero levar ao derradeiro leito

Certo dia o velho adoeceu, durou pouco to logo se foi


Os dois filhos que eram direito, pra arranjar dinheiro venderam seus bois
O n cego foi dando um jeitinho de passar a unha na grana dos dois
Sob as mos do velho no caixo cada um dos dois colocou um milho
O n cego disse eu coloco depois

J pertinho da hora do enterro, o n cego falou aos irmos


Pois eu acho que no vai dar certo nosso pai levar dinheiro no caixo
Algum pode ver ele saindo com este pacote de notas na mo
Meu cheque de trs milhes e pouco o que vocs deram eu pego de troco
Assim eu evito atrair o ladro

Sepultaram o corpo do velho, num buraco bastante profundo


O n cego ficou satisfeito por ter conseguido enganar todo mundo
Quando foi pelas tantas da noite o velho voltou e falou num segundo
No inferno abriu uma poupana passe o dinheiro seno voc dana
O diabo no quis o seu cheque sem fundo

36
Cobra Venenosa
Tio Carreiro & Pardinho Raul Torres e Joo Pacifico

Tom: E
E |---------------------------------------------------------|
B |---------------------------------------------------------|
G#|----------------------5-----------5-7-5------------------|
E |4-5-6-7-5---------5-7---7-4---4-7-------7-5-------5-4-5/7|
B |----------7-5-4-7-----------5---------------7-4-7--------|

E |-------------------------------------------------------|
B |-------------------------------------------------------|
G#|----------------------5-----------5-7-5----------------|
E |4-5-6-7-5---------5-7---7-4---4-7-------7-5-------5-4--|
B |----------7-5-4-7-----------5---------------7-4-7-----7|

Vance talvez no conhece o veneno que as cobras tem


Pois elas quando d o bote balana o guiso tambm
A Cascavel traioeira quando ela quer se vingar
A Urutu perigosa, de ruim no se manifesta
cobra to venenosa que traz uma cruz na testa
Jaracuu, deus nos livre quando ela chega a picar
Deixa o sinal dos seus dentes e a cicatriz no lugar
Mas eu lhes digo a verdade, por cobra eu j fui picado
Por Cascavel, Caninana e Urutu este malvado
De todas j me livrei, deste veneno amargura
Existe um contra veneno por isso tudo se cura
Mas tem uma cobra do mato, cabocla l do serto
Que traz veneno nos olhos e ataca no corao
Desta uma vez fui picado, um dia s por maldade
Que ainda trago o veneno na cicatriz da saudade

E |-------------------------------------------------|
B |-/9-9-9-9-7-5-7--4-7-5--2-5-4--0-4-2--0----------|
G#|-/8-8-8-8-7-5-7--3-7-5--1-5-3--0-3-1--0-1-0-1-2-3|
E |----------------------------------------2-0-2-3-4|
B |0------------------------------------------------|

E B7 E
J vai fazer quase um ano, que eu deixei o meu serto
A B7 E
Por um veneno dos olhos, que atingiu meu corao
A B7
Uma cabocla do mato que tanto mal tem me feito
E B7 A B7 E
Uma olhada me deu, foi um veneno perfeito

37
E |-----------------------|
B |0-2-3-4-4-2-2-0-0------|
G#|0-1-2-3-3-1-1-0-0-1-1-0|
E |------------------2-2-0|
B |-----------------------|

Essa cobra venenosa, cobra em forma de gente


Talvez a mais perigosa, pode matar de repente
Procurei tantos remdios, andei por toda a cidade
Mas tal o que no existe, nada que cure a saudade

Agora vou repetir, a histria mais dolorosa


Esta cabocla do mato, a cobra mais venenosa

38
Corao da Natureza
Ronaldo Viola & Joo Carvalho Luiz de Castro e Ademir

Tom: G

e|----------------------------------------------------------------7-10-7|
B|--------------------------------------------------------------8-------|
G|------------------------------4-5-4-2-0-----------------2-0-----------|
D|-----2---2/5---5-----------5------------4-2-0-----0h4-4---------------|
A|2h3-3---3--/7-7-----5---5-5-------------------4-3---------------------|
E|-----------------5h7---7----------------------------------------------|

G D7 G D7 G G
Estou morando num recanto de serto, onde a civilizao no sabe que existe
Am E Am D7 C D7 G
Moro num grande corao da natureza, onde o cu tem mais beleza e o galo canta triste
D7 G G7 C
A onde eu moro minha luz um lampio e a negra escurido a lua que ilumina
D7 G D7
Um simples rancho sempre foi minha manso, de lenha meu fogo
G
E a minha gua vem da mina

Minha piscina um simples ribeiro, e a minha televiso um lindo amanhecer


O meu tesouro um cavalo tordinho, e o meu ouro o brilho que o luar vem me trazer
Nas dependncias do meu rancho de sap, minha arma a f que protege os dias meus
Minha riqueza sempre foi minha sade, e a minha grade virtude a f que eu tenho em Deus

O meu transporte ainda um carro de boi, que tantas vezes foi lindo tema de cano
Onde os poetas misturaram com saudade esse carro de verdade em simples recordao
Mas para o homem do mundo civilizado sou ainda um atrasado sem cultura e sem valor
Pois neste rico paraso de verdade, para ter felicidade no precisa ser doutor

Neste lugar feliz nasci


Neste lugar feliz sempre vivi
Parece ate que Deus tambm nasceu aqui

39
Cortina do Espao
Juliana Andrade & Jucimara Jos Vitor e Santa F

Tom: B
E |--------------12-11-12-11-9-7-7-6-7-11-10-11-9-7|
B |----7-9-9-7-9-----------------------------------|
G#|7-8-7-8-8-7-8-12-11-12-10-8-7-7-6-7-10--9-10-8-7|
E |7-9---------------------------------------------|
B |------------------------------------------------|

E |12-11-12--9-7--9-6---0-2-4-2-0--|
B |14-13-14-11-9-11-7---2-4-5-4-2-4|
G#|-------------------------------3|
E |--------------------------------|
B |--------------------------------|

B F#7
Nuvem passageira cortina do espao
B
Que as vezes passa sem lembrar de algum
E B
Oua um pedido que a voc eu fao
C# F#7
No deixe faltar a chuva pra ningum
E
Se vier do sul ou se vier do norte
B
Pare um pouquinho aqui no meu serto
F#7
E chova bastante porque minha sorte
E F#7 B
Est na semente que plantei no cho

E B
Nuvem passageira nesse solo quente
E B
A tempos no vejo o meu mato verde
F#7
Minha plantao meu rio e meu gado
B
Esto precisando saciar a sede

Quando a chuva passa e o sol aparece


Um lindo arco ris abraa voc
O homem o campo contente agradece
Aquele pedido que fez pra chover
Nuvem passageira que no ms de maio
Choveu pra vingar a flor do capim
No campo do amor eu vivo de orvalho
Traga uns pinguinhos de chuva pra mim

40
Cumplicidade
Juliana Andrade & Jucimara Marcos Violeiro

Tom: C
e|3-1-0-------------------------1-0----------------------|
B|------3-1-0-----------------------3-1-0----------------|
G|------------2-0-------------------------2-0------------|
D|----------------3-2-0-----------------------3-2-0---0-2|
A|----------------------3-2-------------------------3----|
E|-------------------------------------------------------|

e|-------------------------3-------1------------------------0|
B|----------------------------------------1-----------------1|
G|--------------0------0-2-----0-2-----0-2------------------0|
D|--0-2-0---0-2---3--2-------2-------2--------0-------------2|
A|3-------3-------------------------------------3-2-0---0-2-3|
E|----------------------------------------------------3------|

C
Ainda trago o ensejo do ltimo beijo
Am Dm
Que ns dois trocamos em nossa despedida
F G
Dizem que a vida no vale um minuto
G7 C G7
Mas existem minutos que valem uma vida
C
Sinto dentro do peito o corao pulsar
Por nosso sentimento meu corpo vibrar
C7 F
paixo de mais que trago comigo
C
Pensar em nos dois se tornou meu vicio
G
Fao por voc qualquer sacrifcio
G7 C C7
h meu doce bem, meu amor amigo
F
Voc meu viver, a razo, meu querer
C
O amor que eu no pretendo esquecer
G G7 C C7
Resumindo tudo que queria ter, em cumplicidade
F
Com voc ao meu lado me sinto mais forte
C
amor verdadeiro no questo de sorte
D G
Pra nos separar nem mesmo a morte
G7 C
Pois vivenciamos a felicidade

41
Dia Feliz
Campo Grande & Cuiab Campo Grande e Rafael Henrique

Tom: A
E |/09-09-09-09-7-5h7p5--/4--4---2h3p2--0h2p0|
B |/10-10-10-10-8-7------/5-5-5-3------2-----|
G#|------------------------------------------|
E |------------------------------------------|
B |------------------------------------------|

E |--------------------------12----9---5|
B |-------------------------------------|
G#|/5-5-5-5-5-3-3-1-0--/12-12--12-8---5-|
E |/5-5-5-5-5-4-4-2-0-------------------|
B |-------------------------------------|

A D E7 A E7
Hoje o dia mais feliz da minha vida, estou dando a despedida dessa selva de concreto
A D E7 A
Estou voltando novamente pro serto, onde a populao jamais passar por perto
B E7 B E7
Cidade grande me deu muita alegria, riqueza para famlia, s tenho que agradecer
D A E7 A
Mais eu confesso que a minha felicidade, ta distante da cidade onde eu quero morrer

Eu trabalhei aqui como um condenado, por pequeno ordenado s para me alimentar


E foi lutando que eu venci na vida, e assim foi construda a vontade de regressar
Esse o motivo que comprei essa fazenda, pra viver com minha prenda, estes anos que me resta
Viver a vida que eu sempre sonhei, neste lugar que achei quase dentro da floresta

Pois l um bom lugar pra pescar, espingarda pra caar, capivara e uns Marrotes
Grande terreiro e uma extensa horta, lindo pasto que suporta a tropa e alguns garrotes
Fogo a lenha e uma imensa varanda, se olhar por toda a banda vai ver uma criao
Tem um pomar e muitos ps de ipe, e atraz da casa ve alqueires de plantao

So que meus filhos preferem aqui ficar, ainda querem se formar nessa terra de bacana
Mas j fizeram pra mim uma promessa, que vo pra l fazer festa todo final de semana
A minha vida agora sossegada, s viola e trucada, paieiro e pescaria
Anoitecer deitado em uma rede, naquele recanto verde olhando a lua todo dia

Cidade grande te admiro com franqueza, pois voc me deu riqueza conforto e uma famlia
Mas no me deu o ar puro das campinas nem as belezas divinas como a lua que brilha
E por isso que estou partindo agora, junto com minha senhora, praquele mundo de paz
Que deus de sorte a todos os filhos meus, cidade grande adeus, adeus para nunca mais

42
Eleitor Envergonhado
Baltazar Violeiro & Martinho
Tom: G
D |------------------------------------------|
A |--------------5-7-9--------------------1-2|
F#|----5-----5-6-------------0------0-1-3----|
D |5-7---5-7-------------0-2----0-2----------|
A |------------------------------------------|

D |------------------------------------------9-8--9|
A |-------10-9----------9-------------------10-9-10|
F#|-----8------10-8---8----------------------------| D7 G
D |---9-------------9-------------4---4-7-5--------|
A |10------------------------/5-5---5--------------|

G D7 G
Hoje minha morada l dentro do mato, lugar que de fato bastante isolado
D7 G
L no tem estrada e nem civa de carro trilheiro de barro terreiro alagado
C D7
No existe ponte minha passarela apenas pinguela de tronco tombado
G
E mais quatro horas de mata fechada, dentro das picadas feitas de machado

D |-----------------------|
A |-----------------------|
F#|3-5-3-1-0------3-5-6--5|
D |4-5-4-2-0--0---4-5-7-5-|
A |----------2------------|

Fiz a minha choa com quatro forquilha, l dentro da ilha estou refugiado
No sou pescador, nem sou caador, sou um eleitor que esta envergonhado
L no ligo radio, no quero noticia, com tanta injustia estou revoltado
No vejo jornais e nem televiso pra no ver o ladro que eu tenho apoiado

Muitos me perguntam se no tenho receio de viver no meio de bichos malvados


Aqui sei que tem muitas onas pintadas, tem cobra enrolada e de bote armado
Mas sempre respondo isso no perigo, maior inimigo no vem pra esses lados
Ta sempre andando de terno e gravata, distante da mata e de carro importado

Sei que tem prefeito e tem vereador, tem governador, ministro e deputado
Que vende a palavra por mixaria, se torna anistia fato consumado
Eles que so urutus cruzeiro, e os brasileiros esto sendo atacados
Como que pode o povo ser feliz, vendo seu pas ser sempre lesado

43
Entre Ais
Juliana Andrade & Jucimara Lzaro Pereira de Arajo e Zeca

Tom: F
D |----------------------10---------------------------|
A |---------------12-10----------------10----13-12--12|
F#|---------11-10-------10-------10-11----11-------11-|
D |------10-------------------10----------------------|
A |10-12----------------------------------------------|

D |3-5-7-8-10-12-12-10-9-10-7/8-8-7-6-7-2/5-5-3--7-8-7|
A |---------------------------------------------------|
F#|3-4-6-8-10-11-11-10-9-10-6/8-8-6-5-6-1/4-4-3--6-8-6|
D |---------------------------------------------------|
A |---------------------------------------------------|

F C7 F
Estou vivendo to distante, de quem na vida mais adoro
C7 F
Estou morrendo a cada instante, so triste as lgrimas que choro
C7 F
S quem passou o que eu passei, s quem viveu o que eu vivi
C7 F
S quem chorou o que eu chorei, s quem sofreu o que eu sofri
C7 A# C7 F
S quem amou o quanto eu amei, de mim no ri

Eu que pra ela dava tudo, o que podia e no podia


Fiz dela o meu contedo, onde eu buscava energia
Era pra ela que eu me dava com tanta fora sem igual
Era pra ela que eu guardava, eu sentimento e moral
Era ela quem completava, meu ideal

Por um momento ns tivemos, convivncia invejada


Mas no futuro no prevamos, na realidade mesmo nada
De tudo aquilo to bonito, ficou saudade e nada mais
No peito um corao aflito, angustia, dores anormais
E um soluo no infinito, por entre ais

Onde ser que ela anda, eu que as vezes me pergunto


Porque notcias no me manda, mesmo que no haja assunto
Queria v-la novamente, nem que seja por amizade
Cara a cara, frente a frente, expor a minha realidade
Dizer que estou morrendo ausente, de saudade

44
Escritas do Profeta
Lucas Reis & Thcio Lucas Reis e Thcio

Tom: E
E |---------------------------|----------------------------|
B |------------------0--------|------------------0---------|
G#|------3-6/5--3---------6--3|------3-6/5--3--------------|
E |----4----------4----4/7---4|----4----------4------2-/4-4|
B |4/5--------------5---------|4/5--------------5---3--/5-5|

E |-----------------------------|---------------------------|-------------|
B |------------------0----------|------------------0--------|-------------|
G#|------3-6/5--3----------10--6|------3-6/5--3-------------|--------3/6-6|
E |----4----------4----4/10----7|----4----------4------2/4-4|-6/7-7-4-/7-7|
B |4/5--------------5-----------|4/5--------------5---3-/5-5|7-/9-9-------|

E7
Uma mensagem de Deus por um raio de luz chegou
G B E A
Ao ouvido de Maria um anjo lhe avisou
E A AEA
O seu ventre Nazar nosso pai abenoou
E7
Voc foi a escolhida pelo nosso criador
F# B D B E
Para dar luz ao mestre, que vai ser o salvador

De acordo com a voz de deus chegou o grandioso dia


Pra cidade de Belm virgem Maria seguia
Ao seu lado foi Jose e a brilhante estrela guia
O lindo cantar do galo marcou aquela magia
Do ventre de Nazar, o fruto de deus nascia

Aprendendo com a vida o menino Jesus cresceu


Espalhando a lei divina por todo o povo judeu
Pela injustia de alguns, falsidade recebeu
Aos ps do imperador, o julgamento lhe deu
Pra salvar a humanidade, pregado na cruz morreu

Guerra, fome, violncia temos todos que enfrentar


J est na beira do abismo precisamos nos salvar
No estouro da profecia joelhos vo se dobrar
Jesus em forma de nuvem, entre ns ele vir
Pra salvar todos da Terra, pra cruz ele voltar

45
Espelho da Vida
Baltazar Violeiro & Martinho
Tom: D
D |----------------------------------|
A |/9-9-9-9-7-5-5/7-4--4-2-0--2---0--|
F#|/8-8-8-8-7-5-5/7-3--3-1-0--1-1-0-0|
D |-----------------------------2---0|
A |----------------------------------|

D |4-2-0---0-----------------[12]|
A |------4---4-2-0-----------[12]|
F#|----------------1-0-------[12]|
D |--------------------2-0---[12]|
A |------------------------------|

D G D
Nossa vida comparada a uma estrada pra caminhar
A7
Mas quem l no fim chegou nunca mais voltou e nem voltara
Quem tem ouro na bagagem, segue viagem sem ajudar
D G A7 D
Aquele que no tem nada tem cruz pesada pra carregar

O tempo e uma serpente, que leva a gente pro fim da vida


No espelho da pra ver ele corroer e deixar feridas
Uma face enrugada, marca a jornada j percorrida
Os sonhos iro ficando e a gente chegando pra despedida

Quando eu tinha pouca idade a vaidade me dominou


Eu no pensei no agora e joguei fora quem me amou
Neste mundo de iluso o meu corao de tudo cansou
A velhice hoje me invade a felicidade pra trs ficou

Quem perde um grande amor no encontra flor nesta caminhada


Somente pontas de espinhos em seu caminho sero cravadas
Ento a saudade alcana no d esperana s da pancada
No chicote das lembranas, a gente avana pro fim da estrada

E A E
Como se fosse um escombro sobre meus ombros sinto pesado
B7
Em vo eu vou carregando o peso dos anos acumulados
Meus olhos conquistadores esto sem cores e acinzentados
E A B7 E
Por capricho em minha mente est presente o meu passado

46
Espelhos da Vida
Fernando & Osmair Ademar Braga e Dino Franco

Tom: E
E |---------/7|-------------|-------------|---------------------|
B |/9-7---7-/9|/9-7---------|/9-7---7-----|7-9-7----------------|
G#|/8-7--7----|/8-7-8-7-5-3-|/8-7--7--[12]|7-8-7-9-7-5-3-5-3-1-0|
E |-----7-----|-----9-7-5-4-|-----7---[12]|------8-7-5-4-5-4-2-0|
B |-----------|-------------|-------------|---------------------|

E B7
No grande espelho do tempo com minhas vistas cansadas
A B7 E
Eu fico olhando tristonho toda a minha caminhada
E7 A
Eu vejo tudo passando, numa tela desbotada
E B7 E
o que me resta somente, porque sei que logo em frente vai terminar minha estrada

Vejo a imagem do meu pai l na varanda sentado


Tocando seu oito baixos, do fole um pouco furado
Meu av com sua viola, caprichando no ponteado
Muitas vezes cochilando, logo depois acordando com sua viola abraado

Vejo vov no alpendre com seu sorriso to belo


Passando com ferro a brasa, o meu terninho amarelo
Vejo mame furiosa, me pegando de chinelo
Toda a minha rebeldia, ela sempre resolvia com a vara de marmelo

A vida cheia de espelhos refletindo sem parar


Agente tem que escolher, em qual deles se espelhar
Ao chegar ao fim da estrada ns temos que encarar
A imagem refletida, no retrovisor da vida quando a cortina fechar

47
Eu a Viola e Ela
Tio Carreiro & Praiano Praiano, Peo do Vale e Chico Pereira

Tom: B
E |11--9-7-11--9-5-7--9-7--9-11--9-7|2-4-5-6--9-7-6-2-0--|---------------------|
B |12-10-9-12-10-7-9-10-9-10-12-10-9|4-5-6-7-11-9-7-4-2-4|---------------------|
G#|---------------------------------|-------------------3|--2-3-2---0----------|
E |---------------------------------|--------------------|2-2-4-2-2-0-2--------|
B |---------------------------------|--------------------|4-------4---4-0-2-3-4|

B F# B
Por causa de voc viola, quem diz que me adora quer me abandonar
F#
Por cime vive a me dizer pra eu escolher com quem vai ficar
E F# B
Gosto dela e vou sofrer muito, mas esse absurdo jamais eu aceito
F# E F# B
Eu prefiro chorar a adeus de quem me conheceu com a viola no peito

Viola eu me lembro ainda ela estava to linda naquela janela


E voc com o seu ponteado, to apaixonado foi que me deu ela
Por isso no vou abrir mo desse meu corao que ela quer lhe roubar
E se ela for mesmo embora com voc viola que eu vou ficar

Viola estou muito triste mas a dor que existe voc me consola
Em seus braos eu fao o queixume do amor que o cime quer levar embora
E prevejo a qualquer momento esse amor ciumento nos deixar pra sempre
Mas que deus l do cu lhe acompanhe e deixe que eu ame a viola somente

48
Filho Pobre
Jac & Jacozinho Moacir dos Santos e Jac

Tom: B
E |-9-12-12--9-10---7--9--9-5-7---4-5-5-2-4--2-2/4|
B |10-14-14-10-12---9-10-10-7-9---5-7-7-3-5--3-3/5|
G#|-----------------------------------------------|
E |-----------------------------------------------|
B |-----------------------------------------------|

E |4-7-7-4-5-------------------------------|
B |5-9-9-5-7---7-9-9-5-7---3-5-5-2-3--0-0h2|
G#|------------6-8-8-5-6---3-5-5-1-3--0-0h1|
E |----------------------------------------|
B |----------------------------------------|

A
Mame eu vivo distante, da casa que voc mora
E
Estou muito arrependido, de um dia ter ido embora
Bm E
Eu quero voltar e no posso, no tenho dinheiro agora
E7 A E A
No v pensar mamezinha, que o filho saiu da linha e esqueceu da senhora

Mame eu sai de casa, por um futuro melhor


Vivendo aqui to distante j vi que tudo pior
Pois a malvada saudade, ta machucando sem d
Eu sa atrs dos cobres, me sinto muito mais pobre vivendo aqui to s

Eu aqui no fao farra, no vivo na boemia


Meu negcio trabalhar, de noite tambm de dia
To juntando um dinheirinho, fazendo economia
Eu no enjeito servio, o meu grande compromisso rever mame um dia

No quero que mame me veja, vestido assim nesses trapos


Vou comprar um terninho novo, nem que seja o mais barato
Vou comprar camisa e meia, e um parzinho de sapato
Se eu no puder ir agora, vou mandar pra senhora, nem que seja meu retrato

49
Garganta do Mundo
Fernando & Osmair Tio do Carro e Jos Caetano Erba

Tom: E
E |/12-12-12-12---/12---12---11---9-7|
B |----------------------------------|
G#|/12-12-12-12---/12---12---10---8-7|
E |----------------------------------|
B |-------------0-----0----0---------|

E |---------------|--------------|---------------|----------------[12]|
B |--0-------0----|--0------0----|--0-------0----|--0-------0-----[12]|
G#|--------3------|--------7-----|--------3------|----------------[12]|
E |0---2-5-----5-2|/7--7-9----9-7|0---2-5-----5-2|--------------2-[12]|
B |---------------|--------------|---------------|0---0-0-2---4---[12]|

E F# B7 E
A garganta do mundo est ressecada, que sede danada que fome sem fim
B7 E
cobra engolindo a serpente esfomeada, faca afiada nas mos do Cain
B7 E
o ciclo do mundo olhando pro lobo, em cima do globo equilibra e no cai
B7 E B7 E
O resto parece criana acanhada, que vive entrelada na sombra do pai
F# B7 F# B7
Poder e ganancia assim se agiganta, e a enorme garganta s quer engolir
A E B7 E
E o pobre caminha sem ter horizonte, enquanto o gigante s pensa em subir

E l na floresta o dinheiro inteirando, vai tudo tombando sem vida no cho


Vai o machadeiro, matando o gigante, na guerra constante da devastao
Fumaa e queimada que tudo destri, abala e corri a estufa espacial
E a gara e as aves cantando em coro, pedindo socorro pro seu pantanal

Baleia azulada nos mares profundos, percorre outros mundos por baixo do cho
E o homem a persegue fazendo caada, traz ela espetada na ponta do arpo
E o que me preocupa nessa humanidade, a grande maldade sem ter corao
O homem avanando vai se destruindo e tudo partindo pra grande extino

50
Gosto e Desgosto
Joo Mulato & Pardinho Lourival dos Santos, Silvano Ramos e
Cido Lossurdo
Tom: E

E |------------------------|-----------------------|----------------------|
B |-0-----0-----0-----0----|-0-----0-----0-----0---|-0-----0-----0----0---|
G#|------------------------|-----------------------|----------------------|
E |--7-4---7-4---7-4----4-2|--5-2---5-2---5-2---2-0|--7-4---7-4----4-5-7-9|
B |5-----5-----5-----5-----|4-----4-----4-----4----|5-----5-----5-7-------|

E |-----------------------------------------------------------------------|
B |--0------0------0------0-------0------0-------0-----0-------------0----|
G#|------8-7-----------7--------------5-----------------------------------|
E |----9------9-7----7---9--7-5-----5---7--5-4----4-7-5--4-2----2-5-4--2-0|
B |10-------------9--------------7--------------5-------------4-----------|

E7 A AEA
Tem gosto e tem desgosto por este mundo afora
B7 E
Com gosto meu povo canta, com desgosto o povo chora
B7 E
O gosto do cantador, ver plateia lotada
E7 A B7 E
Desgosto do cantador viola desafinada

Gosto do homem do campo morar la na cidade


Numa casa com conforto no meio da sociedade
O desgosto do coitado, quando sente a realidade
Vai morar la na favela e da roa sente saudade

O gosto do fazendeiro boi gordo na envernada


Cafezal todo florido e a fazenda bem formada
Desgosto do fazendeiro uma noite de geada
A safra toda perdida, lavora toda queimada

O gosto de uma famlia ver a filha bem casada


Um genro que vale ouro e a filha bem tratada
O desgosto da famlia, vou dizer qual que
Ter um sapato em casa e no poder botar no p

O gosto do caador tombar ona na bala


A fera vira tapete e vai pro meio da sala
Desgosto do caador, pra vocs eu vou falar
ter um veado em casa e ningum poder matar

51
Inquilina de Violeiro
Brenno Reis e Marco Viola Joo Aparecido Gonsalves, Cacique e
Tomaz
Tom: E
E |-12----11-----7-5-4---5---4---2-p0--0-|
B |--------------------------------------|
G#|---12----10---7-5-3----5---3---1p0---0|
E |--------------------------------------|
B |0-----0-----0--------0---0---0-----0--|

E |-12----11----14----12-------------------------------------|
B |----------------------------0------0-------0-------0------|
G#|---12----10----13----11h12----6h7------------6h7-----11h12|
E |-------------------------------------6h7------------------|
B |0-----0-----0-----0--------0------0-------0-------0-------|

E B7 E
Um rapaz com sua viola vem chegando do interior
F# B7
Com chapu de boiadeiro em trajes de lavrador
A
Em um prdio de So Paulo entrou no elevador
AEA
Tambm entrou uma moa igual um boto de flor
B7 E B7 E
Achando a moa to bela o rapaz falou pra ela quero ser o seu amor

A mocinha respondeu com um gesto indelicado


Para mim voc no passa de um mendigo conformado
No tem onde cair morto e quer ser meu namorado
S namoro gente nobre voc um rapaz to pobre no namoro p rapado

O rapaz muito educado ento disse pra menina


Ando com essa viola, pra cumprir a minha sina
Mas sou muito caprichoso s tenho prdio de esquina
Para mim voc no passa de uma falsa granfina
Onde mora no seu, este prdio aqui meu voc minha inquilina

Me chame como quiser de caipira ou de roceiro


Este chapu representa o trofu dos boiadeiros
No largo desta viola, porque sou bom brasileiro
Atrasou seu aluguel vim receber meu dinheiro
Cumpra melhor seu dever sinta orgulho de ser inquilina de violeiro

52
Juventude na Viola
Z Mulato & Cassiano Z Mulato

Tom: B
E |12-11--9-7-6-7--8--9----9-7-6-6-6-6/7-7-7|
B |14-12-11-9-7-9-10-11---11-9-7-7-7-7/9-9-7|
G#|----------------------------------------7|
E |----------------------------------------7|
B |-----------------------------------------|

E |--------------------7-6--6---12-11|
B |------------------9---7-7--14---12|
G#|----7-8-7-8-8---8-----------------|
E |7-9-----------7-------------------|
B |----------------------------------|

B F#
Nossa msica raiz, nunca esteve to forte
B
Hoje a viola canta, no Brasil de sul a norte
C# F# C# F#
Sempre lutamos por ela, e hoje pra nossa sorte
E B F# E F# B
A garotada sem medo, faz da viola o brinquedo, nos dando maior suporte

No se pode ocultar, uma luz no espigo


Por mais que queira esconder, sai pela fresta o claro
Assim nossa viola, que atravs de geraes
Na msica brasileira, tem sido a porta bandeira, de quem defende o serto

Vejo com muito prazer, rica e vendendo sade


Nossa moda de viola, tocando mais amide
A viola rainha, que em sua nova atitude
No despertar de um sono, restabelece o seu trono, nos braos da juventude

Digo ao jovem cantador, que o mandamento primeiro


Ter franca brasilidade, dever do violeiro
Em toda arte que faa, procure ser verdadeiro
Cantando com o corao, defenda nosso serto e seja bem brasileiro

53
Lamentos de um Peo
Goiano & Paranaense Goiano e Valdemar Reis

Tom: A
e|---------------------------------------5------7-10-7--------7-10--7-----------------5|
B|--------------------------------------5----7-9-------9---7-9--------9-7-5----------5-|
G|-------------------7----------------/6----9-------------9-----------------7-6-4---6--|
D|-----------7-6-9-----9-6-9-4-6-2------------------------------------------------7----|
A|0-2-3-4--7---------------------------------------------------------------------------|
E|-------------------------------------------------------------------------------------|

e|--------------------------------|
B|--------------------------------|
G|------------------2------------2|
D|2-4-2-0---------2-----2-------2-|
A|--------4-2-0-4------------2-4--|
E|------------------------4-------|

A E
Numa estao rodoviria, eu vi um velho sentado
E7 D E A
O que me chamou ateno, foi como estava trajado
E
Um chapu de carand, e um lao bem tranado
A
Com uma guaiaca velha, e um berrante empoeirado

e|------------------------------------|
B|------------------------------------|
G|----1-----------------2------------2|
D|2-4---4-2-0---------2-----2-------2-|
A|------------4-2-0-4------------2-4--|
E|----------------------------4-------|

Me aproximei do velho, e apertei a sua mo


Pois no traje que ele estava, mereceu minha ateno
Ele me disse meu filho, fui carreiro no serto
Fui capataz de fazenda, fui tropeiro e fui peo

Vi tantas coisas bonitas, no interior do serto


Tocando boi pantaneiro, no lombo de um pago
Conduzi todas boiadas, l nos confins do serto
Porm hoje tudo mudou, o carreiro o caminho

J sinto o peso dos anos, tudo mudou de repente


No caminho desta vida, ningum fica pra semente
Carrego este berrante, ele que faz bem pra gente
Ele alivia a saudade, e a dor que meu peito sente

Chegou ao fim da conversa, o velho ento me falou


Vou descer na plataforma, pois o meu nibus chegou
Pegou a sua bagagem na conduo ele entrou
Com o destino a Barretos o velho peo embarcou

54
Lampio a Querosene
Z do Cedro & Joo do Pinho Jos Ferreira

Tom: E
E |7-6-7-11--9-5-4-2--5-4-5--9-7-4-0----4-3-4-11-11--9--9-7-7-5-6-7|
B |9-8-9-12-10-7-5-4--7-6-7-10-9-5-2-4--5-4-5-12-12-10-10-9-9-7-8-9|
G#|----------------------------------3-----------------------------|
E |----------------------------------------------------------------|
B |----------------------------------------------------------------|

E |7-6-7-11--9-5-4-2--5-4-5--9-7-4-0----4-3-4-11-11--9--9-7-7-5-5-4|
B |9-8-9-12-10-7-5-4--7-6-7-10-9-5-2-4--5-4-5-12-12-10-10-9-9-7-7-5|
G#|----------------------------------3-----------------------------|
E |----------------------------------------------------------------|
B |----------------------------------------------------------------|

E A E B7
Quando eu visito minha me do corao, eu sempre vejo na parede pendurado
A B7 E
Um pequenino e pitoresco lampio, que ela conserva por lembrana bem cuidado
A E E7 A
Olhando aquele lampiozinho aposentado, sinto acender a luz da recordao
B7 E B7 E
A mesma chama que brilhou no meu passado, eu sinto agora queimar meu corao

B7 E B7 E
Lampiozinho a querosene inesquecvel, que pra meus pais iluminou na flor da idade
B7 E B7 A B7 E
Hoje apagado, sem pavio, sem combustvel, mantem acesa a chama viva da saudade

Eu quantas vezes ante a luz desse lampio, vi minha me levantar de madrugada


Fazer caf e preparar o caldeiro, pra logo aps o papai sumir na estrada
O lampiozinho no tem mais utilidade, s por enfeite pe na sala to solene
Mas eu daria toda a eletricidade, por meu tempinho do lampio a querosene

55
Meu Pai
Tio do Carro & Pagodinho Tio do Carro e Jos Caetano Erba

Tom: B
E |------------------------|---------------------|
B |4-5-4-2-0-0-0-----------|--------------5-5-5-4|
G#|3-5-3-1-0-0-0-1-0--0-0-0|--------0-0-0-5-5-5-3|
E |--------------2-0--0-0-0|------2-0-0-0--------|
B |------------------------|0-0-0-4--------------|
Cansado da luta dos trancos da vida, saudade doida bateu pra valer

E |---------------------|---------------------|
B |4-4-4-4-4-2-2-2-0----|--------5-5-5-4------|
G#|3-3-3-3-3-1-1-1-0-2-2|0-0-0-0-5-5-5-3-3-0-0|
E |------------------1-1|0-0-0-0---------4-0-0|
B |---------------------|---------------------|
Lembrei do meu pai l no sitio nosso, meu velho no posso ficar sem te ver

E |---------------------|---------------------|
B |--------4-4-4-4-4-4-4|--------4-2-4-5-5-4-2|
G#|2-2-2-2-3-3-3-3-3-3-3|2-2-2-2-3-2-3-5-5-3-2| F#
E |2-2-2-2--------------|2-2-2-2--------------|
B |---------------------|---------------------|
Cheguei bem cedinho na cerca de arame, eu vi o enxame de abelha subir

E |---------------------|---------------------|
B |--------2-2-2-2-2-2-2|2-2-2----------------|
G#|2-2-2-2-2-2-2-2-2-2-2|2-2-2-2-3-3-3-2-2-0--|
E |2-2-2-2--------------|------2-4-4-4-2-2-0-2|
B |---------------------|--------------------4|
No velho mouro do cho estradeiro, exalava o cheiro do mel jatai

E |---------------------|---------------------|
B |--------4-4-4-4-4-4-4|4-4-2-4-5-5-4-0-----0|
G#|2-2-2-2-3-3-3-3-3-3-3|3-3-2-3-5-5-3-0-0-0-0|
E |2-2-2-2--------------|----------------0-0--|
B |---------------------|---------------------|
Batendo orvalho da alta pastagem, eu criei coragem pro rancho eu desci

E |-----------------------|---------------------|
B |--------5-5-4-7-7-5-4-4|2-2-2-2-2------------|
G#|0-0-0-0-5-5-3-7-7-5-3-3|2-2-2-2-2-3-3-2------|
E |0-0-0-0----------------|----------4-4-2-2----|
B |-----------------------|----------------4-0-0|
Gritei no terreiro ningum na palhoa, no eito da roa meu velho eu vi

Seguindo acero fui seguindo o trilho, na roa de milho eu entrei devagar


O sol nesta hora mostrava seu brilho, meu pai seu filho eu vim te abraar
O velho tirou da cabea o chapu, olhando pro cu pegou a chorar
Dizendo meu filho que roupa limpinha, no rele na minha pra no se sujar

56
Do peito do velho o suor corria, at parecia a mina da biquinha
Meu filho a gua est no arvoredo, eu trouxe hoje cedo a porunga cheinha
At meu almoo eu deixei preparado, est pendurado do galho da arvinha
Eu fiz hoje cedo bem madrugado, arroz e feijo jab com farinha

Em suas palavras eu j decifrei, e nem perguntei mame onde est


Na roupa do velho guanxuma mida, e as mos cascudas que nem jatob
E ele me disse assim nesta hora, voc vai embora onde vai pousar
Papai eu vou indo no se aborrea, antes que anoitea eu preciso voltar

E |-----------------------------|-----------------------|
B |4-4/11-11-11-11-7-7-7-5-4-7-7|2-2-2-2-2--------------|
G#|3-3/10-10-10-10-7-7-7-5-3-7-7|2-2-2-2-2-3-3-3-2-0----|
E |-----------------------------|----------4-4-4-2-0-2-2|
B |-----------------------------|--------------------4-4|
Eu beijei o rosto do meu pai amado, entrou no roado o sulto foi atrs

E |-----------------------|---------------------|
B |--------5-5-4-7-7-5-4-4|2-2-2-2-2------------|
G#|0-0-0-0-5-5-3-7-7-5-3-3|2-2-2-2-2-3-3-2------|
E |0-0-0-0----------------|----------4-4-2-2----|
B |-----------------------|----------------4-0-0|
Eu tambm sai chorando escondido, meu velho querido eu te amo de mais

57
Meu Stio Meu Paraso
Z do Rancho & Z do Pinho Z do Rancho

Tom: E
E |4-5-7--9--9/11--11-11-11-12-12/14-14-14-12-11--9|
B |5-7-9-10-10/12--12-12-12-14-14/16-16-16-14-12-10|
G#|------------------------------------------------|
E |------------------------------------------------|
B |------------------------------------------------|

E |-9--9--9-10-10/12-12-12-11--9-7-7-4-4-7-7-2-5-4|
B |10-10-10-12-12/14-14-14-12-10-9-9-5-5-9-9-4-7-5|
G#|-----------------------------------------------|
E |-----------------------------------------------|
B |-----------------------------------------------|

E
Quanto mais o tempo passa, mais aumenta a vontade
B7
De deixar esta cidade e voltar pro interior

No lugar da fumaceira, desta vida agitada


E
Vou andar pela invernada, sentindo cheiro de flor

F# B7
isso o que vou fazer, no estou mais indeciso
A B7 E
Volto a viver no mato, meu stio meu paraso

De manh quando levanto, no me levanto sozinho


Pois escuto os passarinhos alegrando a madrugada
Feliz vou l pro curral, recolho as vacas leiteiras
Eu adoro a barulheira do mugir da bezerrada

Quando de tardezinha, pego a traia de pescar


Com a matula no embornal eu vou l pro ribeiro
Jogo farelo no poo, a peixarada se assanha
E eu que conheo a manha pego peixe de monto

Aos domingos l no sitio, daqui bem diferente


Agente passa contente rodeado de amigos
Pescando ou jogando malha, o quanta felicidade
por isso que a saudade at hoje esta comigo

58
Meu Sonho
Baltazar Violeiro & Martinho
Tom: B
E |-----------------|-----------------|------------0-4-5-6|
B |----7---------9-7|7-------------7-5|--------2-4---5-6-7|
G#|--7---8-7-----8-7|--8-7---------7-5|----2-3------------|
E |7---------9-7----|------9-7-6------|2-4----------------|
B |-----------------|------------7----|-------------------|

E |9-7-6---------------------7|
B |------9-7---------------7--|
G#|----------8--7-8-7----7----|
E |------------------9-7------|
B |---------------------------|

B F#7 B
Essa noite eu estava pensando, relembrando os meus tempos atrs
F#7 E F#7 B
E ao dormir eu acabei sonhando, e sonhando eu fui longe de mais
F#7 B
Regressei muitos anos no tempo, pois no sonho o regresso capaz
B7 E F#7 E B
E com a fora do meu pensamento, revi muitas coisas que no voltam mais

Comecei pela terra querida, um pedao de cho em Gois


Um recanto to cheio de vida, que outro igual no existe jamais
Via a casa que foi construda com o esforo e o suor dos meus pais
Que at hoje no foi destruda e vive cercada pelos animais

Vi a estrada por onde eu passava, quando eu ia e voltava da escola


E o banquinho que o meu pai sentava pra tocar as modinhas de viola
Vi o campo que a gente jogava, as partidas do jogo de bola
A lagoa que a gente pescava, e em pouco tempo enchia a sacola

Avistei a porteira se abrindo pra boiada que vinha chegando


E a poeira que vinha subindo, pelo ar ia se espalhando
Porm o momento mais lindo, ainda estava se aproximando
Foi ouvir os cachorros latindo e os boiadeiros berrante tocando

Foi pra mim uma grata surpresa, um presente que Deus me mandou
De eu voltar rever a beleza, do lugar em que a gente morou
Minha infncia foi uma riqueza, e o meu sonho s me confirmou
Nesta noite eu tive a certeza, que a me natureza de mim se lembrou

59
Moenda da Usina
Baltazar Violeiro & Martinho Iron Lamana e Baltazar Violeiro

Tom: A
D |----------11--9----11/12|--------6-9-4-6-7-7-7---7|
A |-------12-12-11-12-12/14|------7-7-7-5-7-9-9-9-9-7|
F#|----10------------------|8-8-8-8---------------8-7|
D |/11---------------------|9-9-9--------------------|
A |------------------------|-------------------------|

D |----------11--9----11/12-12-12-11--9--9-7-6-6/7/6--------------|---------|
A |-------12-12-11-12-12/14-14-14-12-11-11-9-7-7/9/7-9-7h9p7-7----|---------|
F#|----10--------------------------------------------8-7h8p7-7-8-7|2-2-2-3-5|
D |/11---------------------------------------------------------9-7|2-2-2-4-6|
A |---------------------------------------------------------------|---------|

A F# Bm
Sentindo saudade da roa, terra que era nossa resolvi rever
E7 A
A tempos que eu no voltava, ao lugar que eu morava e que me viu crescer
E7
Andar pelas verdes campinas, e a agua da minha de novo beber
D A E7
Mas confesso quando l cheguei, ao lugar que a infncia passei
D E7 A
Quase no pude reconhecer

D |-------------------|
A |2-4-2--------------|
F#|2-3-2-3-2-0-----2/7|
D |------4-2-0-2-0-2/7|
A |------------4-2----|

No havia mais os arvoredos, cheguei a ter medo da evoluo


A paineira de tronco frondoso, estava em repouso de baixo do cho
Rego dgua movia o monjolo, secou o seu solo com a devastao
E a madeira dos nosso currais, com o fogo dos canaviais
S ficaram cinza e carvo

Nossa casa meu primeiro abrigo, talvez por castigo nessa solido
A varanda tinha desabado, somente ficou de p o salo
Quando entrei pisando no entulho, talvez por orgulho do meu corao
Encontrei um quadro sem moldura, l no prego da parede escura
Com a fumaa do velho fogo

Com meu leno tirei a poeira, ento a primeira imagem surgiu


Era a foto daquela fazenda, que hoje as moendas da usina engoliu
E na sombra da velha paineira, boiada carreira na foto saiu
Vi meu pai com seu cavalo branco, na verdade confesso sou franco
Nessa hora meu pranto caiu

60
Passagem: A G# A B#

B G# C#m
Apertando no peito o retrato, pressenti de fato meu pai e meus irmos
F#7 B
Ouvi passos pelo assoalho, e o cheiro do alho invadiu o casaro
F#7
Pois mame fazia na cozinha, arroz com galinha verdura e feijo
E B F#7
E a maninha com delicadeza, colocava o forro na mesa
E F#7 B
Pra servir a nossa refeio

D |---------------|
A |6-4-6-4--------|
F#|5-4-5-4---5-4--|
D |----------6-4-4|
A |--------------6|

Parecia tudo real, que at senti mal de tanta emoo


Resolvi deli me retirar e de volta pegar o velho estrado
E levando somente comigo, este quadro antigo pra restaurao
Muito triste voltei pra cidade, mas voltando a realidade
Sei que os tempos jamais voltaram

61
Mouro da Porteira
Tonico & Tinoco Raul Torres e Joo Pacifico

Tom: E
E |/4-4-4-4---4-2-2-0-0------------------------------|
B |/5-5-5-5---5-4-4-2-2-4---4-5-2-0-0--4-0------2-0--|
G#|---------------------3---3-5-1-0-0--3-0-1-1--1-0-0|
E |----------------------------------------2-2------0|
B |--------------------------------------------------|

E B7
L no mouro esquerdo da porteira
A B7 E
Onde encontrei voc na despedida
C#m F#m
Uma lembrana minha derradeira
B7 E
um versinho que nele escrevi

Voc eu sei passa esbarrando nele


E a porteira bate pra avisar
Voc no sabe que sinal aquele
E nem sequer se lembra de olhar

Aqui to longe eu pego a viola


E aquele verso comeo a lembra
Uma saudade dor que no consola
Quanto mais di agente quer lembrar

Voc talvez no sabe o que saudade


Uma lembrana voc nunca sentiu
Pois esquecer as vezes tenho vontade
Esta vontade o meu peito feriu

No dia que doer seu corao


E uma saudade que eu tanto senti
Voc chorando passara nesse mouro
Ler o verso que eu nele escrevi

62
Mundo Moderno
Dombar & Domzete
Tom: E
E |----------------------|----------------|-----------------------|--------------------|
B |----------------------|----------------|-0---------------------|--------------------|
G#|7/12---12-12-10-8--7-7|10-8-7-7-8-7-5-3|------------------7---1|/7-7-7-7-8-10-8-7-12|
E |7/12-12---12-11-9-7--7|11-9-7-7-9-7-5-4|-------0-2-3-4/7-7---2-|/7-7-7-7-9-11-9-7-12|
B |----------------------|----------------|0--2-4-----------------|--------------------|

E B7 E
Mundo velho ta moderno pra tudo tem soluo
E7 A B7 E
Inventaram at um jeito de fazer transformao
B7 E
Mulherada joga duro, querendo revoluo
E7 A F# B7
Sacrifica, se consome, faz regime passa fome
E B7 E
Ta usando silicone, e faz lipo aspirao

Na mesa de cirurgia, bisturi bem afiado


O doutor trabalha firme, pra dar conta do recado
Esse tal de silicone, quando bem aplicado
Levanta bunda cada, o peito espicha pra riba
Poe tudo sob medida, um sucesso danado

O mundo t esquisito e eu j no boto f


Tem tanta coisa moderna remando contra mar
Tem homem querendo homem, mui querendo mui
isso que me desgosta, mundo veio cai de costa
Do jeito que o diabo gosta, nunca mais fica de p

Tudo aquilo que deus fez eu aprovo e acho bom


Ele fez a mulher bela da costela de Ado
Essa obra to bonita no precisa alterao
No precisa de concerto, porque no vejo defeito
um produto perfeito, pra ganhar meu corao

63
Museu da Minha Vida
Francisco & Fernando Junior Hartung

Tom: E
E |---------------------------------|4-3-4--9--9--9-7-10-10--9-10-12|
B |4-3-4-9-9-9-7/10-10-10-10-7/12-12|5-4-5-10-10-10-9-12-12-10-12-14|
G#|3-2-3-8-8-8-7/10-10-10-10-7/12-12|-------------------------------|
E |---------------------------------|-------------------------------|
B |---------------------------------|-------------------------------|

E |------------------------|-----------------------|
B |/5-5-5-4-4-4-2-0-0------|-----------------------|
G#|/5-5-5-3-3-3-1-0-0-1-1-0|0---0-5-5-7-7-3-3-1-1-0|
E |-------------------2-2-0|0-2-0-5-5-7-7-4-4-2-2-0|
B |------------------------|--4--------------------|

E B7 E
Vendi meu carro e minha boiada carreira
A E A
Guardei no quarto pra ter de recordao
Ab C#m
A minha traia do meu tempo de carreiro
F# B7 A G#m F#m E
Quando eu rodava nas estradas do serto

Entre os guardados ficou uma velha guampa


De chifre longo pra transportar o azeite
O meu ferro sem a vara de marmelo
Sem serventia hoje s ficou de enfeite

Ficou o chumao e uma canga de aroeira


Quatro canzis um fueiro e uma gamela
Uma espingarda e um faco enferrujado
O meu balaio e um cinturo sem a fivela

Das duas rodas guardei todos os rosalhos


Uma peneira toda feita de taquara
Um eixo gasto pelo peso de sua carga
A cantadeira j sem leo ressecada

Tenho guardado na memria um canto triste


Desentoado pelo tempo e o progresso
Hoje eu carrego na lembrana o meu passado
Pesado fardo de saudade eu lhe confeo

Hoje esse quarto o museu da minha vida


Onde eu espero que passe o carro do tempo
Leve o carreiro pra derradeira partida
Pra uma viagem com passagem s de ida
Pra uma viagem com passagem s de ida

64
Nis Jeca Mais Nis Jia
Brenno Reis & Marco Viola Divaney

Tom: E
E |------------------------------------------------|
B |-0----------------------0-----------------------|
G#|---------8----8-7-5-3/7---------3----3/7-5-3-1p0|
E |----7-7-7--7-7-------------2-2-2--2-2-----------|
B |0--9-9-9--9-9----------0--4-4-4--4-4------------|

Abafado
|--------------------------------------------|
E |------------------------------------------------|
B |-0----------------------0-----------------------|
G#|---------8----8-7-5-3/7---------3----3/7-5-3-7h8|
E |----7-7-7--7-7-------------2-2-2--2-2-----------|
B |0--9-9-9--9-9----------0--4-4-4--4-4------------|

Tem homi que nasce macho, e topa qualquer disputa


Enfrenta fogo cruzado, e nunca foge da luta
Mais tem uns que revorteia, e a mudana muito bruta
Comea escapando a r, e acaba virando fruta

Caipira que caipira num cai nessa parania


Nis jeca mais nis e jia

Casa cum mui safada, s d disarrumao


briga pancada e chifre, vorta e meia da priso
Do dinheiro que oc ganha, ela num dexa um tusto
A dispesa dela grande, pra manter o ricardo

Caipira que caipira num sustenta lambisgia


Nis jeca mais nis e jia

Bizinho vai na boate, nis vai na festa do peo


O borso vai calibrado, whisky s do bo
Agarrado cs potranca, noite inteira no bailo
Boate pra dana, sozinho na escurido

Caipira que caipira essa dana num apia


Nis jeca mais nis e jia

Conheo uns camarada, que vive s de iluso


D uns tiro na marvada, fuma o cachimbo doido
Viaja nesse barato, diz que tudo muito bo
Os maluco depois fica, cuma cara de bundo

Caipira que caipira no se achega nessa nia


Nis jeca mais nis e jia

65
Caipira num se exibe, mostrando tudo que tem
firme nos compromisso, no d tombo em ninguem
As custa do seu trabaio, dignidade mantm
Tem safado que s vive, se der o gorpe em alguem

Caipira que caipira cai na agua e no boia


Nis jeca mais nis e jia

Tem gente que do contra mais tem gente que apoia


Nis jeca mais nis e jia

66
Novo Amor
Daniel Viola Daniel Viola

Tom: E
|-------------------------------------| (2x)
E |----0-2-4-2-0-2-5-|--5-7-5-9-7-5-5-4-|
B |---0--------------|------------------|
G#|------------------|------------------|
E |-0--------------2-|-7------------7-5-|
B |------------------|------------------|

|--------------------------------------
|------ (2x) ------|------ (2x) ------|

E |----0-----------0-|-----0-2-0------0-|
B |--0----10-9---0---|---0----------0---|
G#|------------------|------------------|
E |0-----------0-----|------------------|
B |------------------|-2----------2-----|

------------------------------------| (2x)
|---- (2x) -----|------ (2x) -------|

E |----0------0---|----0--------0-----|
B |--0-------0----|---0--------0------|
G#|-------------8-|----------------10-|
E |5-----5/7------|-7----7/11---------|
B |---------------|-------------------|

E |-----------------------------------------------------|
B |--0-------0----0----0-------0----0----0-------0----0-|
G#|8-------8---12----7-------7---10----5-------5---9----|
E |----7-----------------7-----------------5------------|
B |------9-----------------9-----------------7----------|

E |-10--7--5--2-|
B |- 9--9--7--4-|
G#|-------------|
E |----0--0-----|
B |-------------|

E |-----------------------------------------------------|
B |--0-------0----0----0-------0----0----0-------0----0-|
G#|8-------8---12----7-------7---10----5-------5---9----|
E |----7-----------------7-----------------5------------|
B |------9-----------------9-----------------7----------|

67
E |-10--7--5--4-|
B |- 9--9--7--5-|
G#|-------------|
E |----0--0-----|
B |-------------|

|-----------------------------| (2x)
|---- (2x) ----|---- (2x) ----|

E |---0-5-4----0-|---0-7-5----0-|
B |--0--------0--|--0--------0--|
G#|--------------|--------------|
E |2--------2----|4--------4----|
B |--------------|--------------|

E |---0-9-7----0-|---0-6-5----0-|---0-5-4----0-|
B |--0--------0--|--0--------0--|--0--------0--|
G#|--------------|--------------|--------------|
E |5--------5----|4--------4----|2--------2----|
B |--------------|--------------|--------------|

E |---4--4--4--4--4--4--4--4-|---0--0--0--0-|
B |--0--0--0--0--0--0--0-----|--0--0--0--0--|
G#|--------------------------|--------------|
E |0-------------------------|--------------|
B |--------------------------|-2------------|

E |---0--0--0--0-|---0--0--0--0-|---0--0--0--0-|
B |--0--0--0--0--|--0--0--0--0--|--0--0--0--0--|
G#|--------------|--------------|--------------|
E |--------------|-0------------|-2------------|
B |-4------------|--------------|--------------|

|-------------------------------------| (2x)
|------ (2x) ------|------ (2x) ------|

E |----0-----------0-|-----0-2-0------0-|
B |--0----10-9---0---|---0----------0---|
G#|------------------|------------------|
E |0-----------0-----|------------------|
B |------------------|-2----------2-----|

68
|------ (2x) ------|

E |----0-----------0-|----0-7-5----0-5-4|
B |--0----10-9---0---|--0---------0-----|
G#|------------------|------------------|
E |0-----------0-----|0---------0-------|
B |------------------|------------------|

E |---0-4-2-----0--0-|
B |--0--------0----0-|
G#|----------------0-|
E |0--------0------0-|
B |----------------0-|

69
Nunca Mais vou te Esquecer
Goiano & Paranaense Cesar Augusto e Lucas Robes

Tom: D
E |----------------------------------------------|
B |5h7-5h7p5----7--7-5----7----------------------|
G#|----------6-6-------6-6-----5-6-5h6p5---------|
E |--------------------------7-----------5------5|
B |----------------------------------------7-6/7-|

E |--------------3-3-3-3-----------------------|
B |----------------------2-0-2-3-5---3---------|
G#|-----------2/3--3-3-3-1-1-1-1-1------5-6-7-8|
E |1/5-5-5-7------------------------2---5-7-8-9|
B |3/7-7-7-8-----------------------------------|

D G D
Porque me deu vontade de te ver
G D
De deitar no seu corpo e amar voc
A G
Se eu j no sentia mais essa paixo
D
Porque bateu em mim essa recordao
A A7 G D
E essa saudade queimando feito brasa no meu corao

D G D
Porque me deu vontade de chorar
G D
Se eu mesmo pedi pra voc no voltar
A G
Por que ainda sinto em mim as suas mos
D
Porque fiquei com medo dessa solido
A A7 G D A7
E essa saudade, queimando feito brasa no meu corao, no meu corao

D Bm F#m
Porque ser que ainda est doendo assim
G E A A7
Se eu j encontrei outro amor e matei voc dentro de mim
D Bm F#m
Meu deus ser que nunca mais vou te esquecer
G A D
Se eu me engano beijando outro corpo e lembrando voc

70
O Menino da Gaita
Joo Vitor & Isaac Fernando Arbex

Tom: A
E |-5--4h5p4--2h3p2-0------------------------------------------|
B |7--5------3------2-2/3-3--3-5-7--5-7-9--3/7-7--7-7-7-5---3--|
G#|-------------------1/3-3--3-5-6--5-6-8--3/6-6--6-6-6-5--3--1|
E |-----------------------------------------------------------0|
B |-----------------------------------------------------------2|

E7 D A
Era um rapaz, olhos claros bem azuis
E7 D A A7
Andava s, uma gaita em sua mo
D A E7
Oua, sua linda cano, olhos tristes no cho
D A D A
Que caminha sozinho
D A E7
Oua l vai ele tocar, notas tristes no ar
D E7 A
assim que pede amor

E7 D A
Caminha s, ningum sabe de onde vem
E7 D A A7
Triste a tocar pela rua sem ningum
D A
Sente que uma lagrima vem
E7 DA DA
O seu rosto molhar, com a chuva que cai
D A E7
Oua l vai ele a tocar, notas tristes no ar
D E7 A
assim que pede amor
A E7 A
Toca, toca s pra mim

71
Oceano da Vida
Juliana Andrade & Cleiton Torres Z Fortuna e Z Carreiro

Tom: G
D |3-3-3-2-0-------3-2-0-------2|0-0-0-----------0-------0----|
A |----------3-2-2-------3-2-3--|------3-0-----0---3-2-2---3-0|
F#|-----------------------------|----------1-0----------------|
D |-----------------------------|-----------------------------|
A |-----------------------------|-----------------------------|

D |3-3-3-2-0-------3-2-0-------2|--------0-2--------|
A |----------3-2-2-------3-2-3--|5-3-2-3-----0-3-2--|
F#|-----------------------------|------------------1|
D |-----------------------------|-------------------|
A |-----------------------------|-------------------|

G D7 G
Vejo no espelho o meu rosto envelhecendo
D7
Qual o oceano aps a sanha de um tufo
Am E7 Am
A espuma branca so meus cabelos grisalhos
D7 G
Minha calvice a praia da iluso
D7 G
As minhas rugas so as ondas traioeiras
E7 Am
Que se avolumam com os fortes vendavais
C G
Meus olhos fundos so dois barcos naufragados
D7 G
Que sobre as ondas no emergem nunca mais

D7 G D7
Meus lbios frios, j quase mornos
Am D7 G
Tem sido um porto, anos atrs
D7 G E7 Am
Onde atracavam lbios ardentes
C G D7 G
Hoje s resta a solido do cais

Velhos amores para bem longe voaram


Como gaivotas que se perdem sobre o mar
A mocidade ficou longe como as rochas
Onde meu pranto com suas ondas vo beijar
Vagando eu vou como um navio que perde o rumo
No encontro um cais onde eu consigo me ancorar
tao pesada a bagagem dos meus anos
Que esta fazendo minha vida naufragar

72
Olhos Lindos
Marcos Violeiro & Cleiton Torres Marcos Violeiro

Tom: E
E |------------------------------------------|
B |------------------------------------------|
G#|-------8-8/12-12-12--10-8-7---8--8-7------|
E |-----7----------------------9--------9-7-5|
B |0-/9--------------------------------------|

E |-----------------------------------------|
B |-----------------------------------------|
G#|-------5-/10-10-10--10-8-7---8--8-7---7--|
E |---5-7---------------------9--------9---7|
B |/7---------------------------------------|

E |---------------------------|----------------------------7h9p7-5h7p5--4|
B |--------0-2/5-5-4-2-0-2-4--|-------------0--------------9-----7------5|
G#|0---0-1-0-1/5-5-3-1-0-1-3-1|1p0---------------3-3/7--[7]--------------|
E |0-2-0-2-------------------2|----2p0-/7-------2-------[7]--------------|
B |--4------------------------|------------0--4---------[7]-----0-----0--|

E B7 B7 E B7
Aqueles dois olhos lindos fizeram meu corao
A B7 E EDG
Bater ainda mais forte sentindo grande paixo
E B7
Chegaram brilhando igual sol na tarde de vero
E B7 E
Deixando em mil pedaos a dor de uma iluso

Foi o dia mais bonito quando ela apareceu


E com todo seu carinho logo ela me envolveu
Deixando dentro de mim um amor maior do que eu
Um amor que j no cabe dentro do peito meu

Dentro do meu corao j no tem mais lugar pra dor


Pois ele est carregado de muita paz e amor
Desde quando me perdi num olhar encantador
Minha vida tem mais vida e o mundo mais cor

Aqueles dois olhos lindos so hoje tudo pra mim


Um amor to belo e puro no pode nunca ter fim
Nos braos daquela rosa linda como jasmim
Pra dizer logo a verdade sou bem feliz assim

73
Padecimento
Tio Carreiro & Pardinho Carreirinho

Tom: B
E |---------------------------|
B |--7------------------------|
G#|7-7-8-7-7-5-3-2-----0------|
E |7---9-7-7-6-4-2-----0-0----|
B |----------------0-0---2-0-0|
Ai a viola me conhece que eu no posso cantar s

E |-----------------------------|
B |--7--------------------------|
G#|7-7-8-7-7-5-3-2-----0--------|
E |7---9-7-7-6-4-2-----0-2-0----|
B |----------------0-0---4-2-0-0|
Ai se eu sozinho canto bem, junto eu canto melhor

E |-----------------------------------|
B |--7-----------------9-7-7----------|
G#|7-7-8-7-7-8-8-5-2---8-7-7-8-8-7-7-7|
E |7---9-7-7-9-9-6-2---------9-9-7-7-7|
B |-----------------------------------|
Ai vai chegando o ms de agosto, bem pertinho de setembro

E |-------------------------------------|
B |--7-----------------------2-2--------|
G#|7-7-8-7-7-8-8-5-2---2-2-2-2-2-0-0-0-0|
E |7---9-7-7-9-9-6-2---2-2-2-----0-0-0-0|
B |-------------------------------------|
Os passarinhos cantam alegre, por ver as matas florescendo

E |---------------------------------|
B |----------------------2---4-4-4-4|
G#|2-3-2-2-----------2-3-2-2-3-3-3-3|
E |2-4-2-2-2-2-0-0---2-4---2--------|
B |--------4-4-2-2------------------|
Ai Eu no sei o que ser, que j vai me entristecendo

E |-----------------------------------|
B |4---2-2-----------2-2-----2--------|
G#|3-3-2-2-3-2-2-2---2-2-2-2-2-2-0-0-0|
E |--4-----4-2-2-2-------2-2---2-0-0-0|
B |-----------------------------------|
Passando tantos trabalho, embaixo de chuva e sereno

74
E |---------------------------------|
B |---------------------------------|
G#|2-3-2-2---------------------2-2-2|
E |2-4-2-2-2-2-2-0-0-------0-0-2-2-2|
B |--------4-4-4-2-2---0-0-2-2------|
Eu no como e no bebo nada vivo triste padecendo

E |-----------------------------------------|
B |-----------------------------------------|
G#|2-3-2-2---------------------3-3-2--------|
E |2-4-2-2-2-2-2-0-0-------0-0-4-4-2---2-0--|
B |--------4-4-4-2-2---0-0-2-2---------4-2-0|
Ai prum corao de quem ama, o alivio s morrendo ai ai ai

Ai quem j teve amor na vida, e por desventura perdeu


No deve se lastimar e ficar triste como eu
Pois eu tambm j tive amor, mas no me correspondeu
O desgosto no meu peito, quis ser inquilino meu
Mas eu tenho essa viola que foi enviada por deus
Ai que so me traz alegria e as tristezas rebateu ai ai ai

Ai a viola me acompanha, desde os quinze anos de idade


Ela minha companheira, nas minhas contrariedade
Fao moda alegre e triste conforme a oportunidade
Esse dom de fazer modas, no querer e ter vontade
Tem muita gente que quer, mais no tem facilidade
um dom que deus me deu de desabafar saudades ai ai ai

Ai pra aprender cantar de viola, primeiro estudo que tive


Aprende com violeiro velho, que fazia moda impossvel
Pois eu sou um violeiro novo, mas tambm quero ser terrvel
Fao moda de gente boa e de alguns incorrigveis
Todas modas que eu invento, ocupo rgua prumo e nvel
Ai pensando bem um violeiro, com prazer no mundo vive ai ai ai

75
Pagode da Paz
Marcos Violeiro & Clayton Torres Marcos Violeiro e Clayton Torres

Tom: E
E |-----------------------------------------------|
B |--------------2-0-------------------0-2-0-----0|
G#|--8----0-0-1-----1-0-------7----1-1-------1-0--|
E |-9----0--------------2----7----2---------------|
B |0----0-------------------0----0----------------|

E |------------------------------------------------------[12]|
B |----------2-0--------------0-2-0--------4-2-0---------[12]|
G#|--8----0------1-0--------1-------1-0----------1-0-----[12]|
E |-9----0-----------2-0----------------2------------2-0-[12]|
B |0----0----------------4-------------------------------[12]|

E B7
O meu corao pediu, que eu pegasse a viola
E
Pra musicar alguns versos, que estavam na cachola
B7
Eu no discuto por nada, muito menos nessa hora
E
Venho de terra distante e estou chegando agora
F# B7
S que gosto de viola, me perguntaram porque
E
No idioma caipira, agora vou responder
F# B7
No sou do vento virado, no tenho paia sobrado
E B7 E
Pra cantar sou calibrado, s pelo meu ponteado, no difcil entender

Viola que no prestava comigo ficou batuta


S canto fazendo amigos, eu no entro em disputa
Para pontear dobrado, tenho um parceiro dos bons
No h dueto mais lindo, do que viola e violo
Pagode e moda de viola, pra cantar tem que ter peito
No pode ser mais ou menos, precisa fazer bem feito
No sou bagre de enchente, sou veneno de serpente
Da vida no sou descrente, tenho uma paixo crescente aqui dentro do meu peito

Canto no estilo raiz, com raa e corao


Presto ateno no que diz a palavra tradio
Disseram em outros tempos, que viola ia acabar
Ela renovou as foras, defendendo o seu lugar
Usando toda expresso, viola bom demais
Veja quanto sentimento, o som das dez cordas traz
No cantar sou passarinho, no quero cantar sozinho
Pra todos o meu carinho, abraado nesse pinho, canto o pagode da paz

76
Pai Joo da Mata Virgem
Baltazar Violeiro & Martinho Manuelzito

Tom: D
E |------5-----------------------------------------|
B |----7---8-5-------------------------------------|
G#|--6---------6-5----------------3-2-1--1--5--1---|
E |5---------------7-5-3-2----2-5-------3--5--2---2|
B |--------------------------3-------------------3-|

D A7
Pai Joo da Mata Virgem, negro velho sem regalia
D
Foi sofrido, foi escravo, preto velho padecia
A7
Trabalhava dia e noite, no sei como resistia
G A7 D
Suas pernas machucadas, por correntes arrochadas, Pai Joo chorava e gemia

Numa tarde de Setembro, o cu estava nublado


Quando chegou dois capangas, trazendo este recado
Patro mandou lhe chamar, voc vai ser amarrado
seu dia de apanhar, voc pode preparar, seu lombo vai ser cortado

Preto velho, j cansado, trabalhou a semana inteira


Quando se viu apurado, se disparou na carreira
Enfrentou a mata virgem, no meio da cipoeira
Passou a noite acordado, com seu cachimbo apagado, embaixo de uma figueira

Neste dia Pai Joo, teve o destino marcado


Uma cobra venenosa, picou o velho coitado
Libertou da escravido, por Jesus foi abenoado
Embaixo de uma figueira, descansou a vida inteira, morreu dormindo sentado

77
Paineira Velha
Liu & Lu Dino Franco e Juquinha

Tom: D
e|-------------------------------------------------------|
B|-------------------------------------------------------|
G|--------------------------------0----------------------|
D|--------------------0---4-4-2-4---2-0---0-2-0---------0|
A|0-0---0-2---2-4-0-4-------------------4---------0-2-4--|
E|----2-----3--------------------------------------------|

D A
Paineira Velha abandonada l na estrada do meu serto
A7 D
Tens uma histria do meu passado que est guardada no corao
D7 G
Te conheci eras pequena em meio ao mato onde nasceu
A7 D G A7 D
E todas as tardes eu te regava e assim de pressa voc cresceu

Paineira velha na tua sombra com minha amada fui to feliz


Olhando as flores que voc dava mais o destino assim no quis
E numa tarde voc murchou e os passarinhos emudeceram
E no seu tronco s encontrei o nome dela e um adeus

Paineira velha daquele tempo j se passaram muitos janeiros


Ainda to boa a tua sombra amiga hoje pousada dos boiadeiros
J no existe mais o terreiro e o meu ranchinho o cip cobriu
A sua casca cresceu de novo e o nome dela tambm sumiu

Paineira velha fiel amiga nossos destinos so sempre iguais


Se estou contente voc floresce quando eu padeo suas flores caem
Nascemos juntos paineira velha vamos morrer nesta unio
De vossos galhos quero uma cruz, de sua madeira quero um caixo

78
Palavra de Honra
Tio Carreiro & Paraso Pedro Tomz D'aquino e Tio Carreiro

Tom: B
E |9-9-7-9--6-5-7---7-7-5-7--4-3-4---4/6-6-6-6-6/11--11-10-11|
B |6-6-6-6--7-6-7---4-4-4-4--5-4-5---5/7-7-7-7-7/12--12-11-12|
G#|----------------------------------------------------------|
E |----------------------------------------------------------|
B |----------------------------------------------------------|

B F#7 B
Todo homem tem seu preo, todo santo tem seu dia
F#7 B
Mundo velho esta mudado, de quando os avs viviam
E
Quando a palavra do homem mais que dinheiro valia
F#7 B
Pra se firmar um negcio documentos no havia
F#7 B
Arrancava um fio da barba e dava por garantia

No usava documentos como nos tempos atuais


Para tratar com um homem costuma pensar mais
Porem se desse a palavra por nada voltava atrs
Honrava o que dizia mesmo com riscos fatais
Hoje a palavra de honra manter ou no tanto faz

Hoje tudo est mudado pra ningum isso segredo


A moral de certos homens esto servindo de brinquedo
Quando fala volta atrs muda a verdade por medo
So simples montes de gelo que se passa por rochedo
Pra encontrar muitos deles no precisa sair cedo

Quanto mais o tempo passa mais se perde a tradio


Filhos de homens direito perdem o nome em tabelio
O bom conceito que herdaram se vai nos golpes que do
No importa a honra da casa querem ser mais do que so
Pra se andar nas alturas deixa a moral l no cho

79
Peo Centenrio
Dr. Fauser Ronaldo Viola

Tom: G
e|------------------------------------------|
B|------------------------------------------|
G|-------------4/5-4-0-2-4------------------|
D|0-2-4--0-2-4-------------0-2-4-2-0--------|
A|-----------------------------------3-0-1-2|
E|------------------------------------------|

e|--------------------------------------------5-5-3-2-7/8-7|
B|---------------------------------------------------------|
G|----------------------------4-2-0------------------------|
D|0h2-0---------0-------------------4-2-0------------------|
A|------3-0-2-3---3-2---0-2---------------2----------------|
E|--------------------3---------------------3--------------|

G D7
Cada vez que ouo falar em boiada, ou nas comitivas de transporte bruto
C G
O meu pensamento volta no estrado, de longe a peonada gritando eu escuto
G7 C
Sei que sou mais um entre mil boiadeiros, porem nessa lida fui absoluto
G D7
Rebanhava a res sem ter dificuldade, fui um professor da velha faculdade
C D7 G
Dessa profisso que se cobriu de luto
e|---------------|
B|---------------|
G|2-2-0-----4/5-4|
D|------4-2------|
A|---------------|
E|---------------|

Vale do rio grande o passado de gloria, cantado em poesia falado em soneto


Do caf goiano do som da viola, pra ser mais exato eu falo em Barretos
Tropa descansando l no corredor, das modas trovadas em lindos duetos
Chegava na frente cargueiro e madrinha, trazendo cachaa, jab e farinha
Pra queima do alho acendia os gravetos

Hoje sou um velho peo estradeiro, que j atravessou o grande centenrio


Montado num burro manso e marchador, o tempo traou o meu itinerrio
A poeira vermelha e o sol ardente, me acompanharam num belo cenrio
Rios de piranha, frio e chuva forte, o vento de agosto e a sombra da morte
S abrilhantaram o meu relicrio

Aqui na plateia nesta arquibancada, um peo sem lao espora e gibo


Aplaude de p grandes profissionais, que enfrentam o lombo de um bravo pago
Depende do pulo e da ginetiada, pra ouvir a galera gritar de emoo
Espora batida no peso da idade, tambm faz meu peito vibrar de saudade
Dentro da arena do meu corao

Meu brasil boiadeiro, sou voc, sou a sua memria


Sou peo centenrio, sou caboclo sou parte da histria

80
Pescador Meia Tigela
Cacique & Paj Cap. Jorge, Cacique e Nil

Tom: E
E |12-11-9-7-5-4-0--5-7-9-11--14-12-12-11-12|
B |-----------------------------------------|
G#|12-10-8-7-5-3-0--5-7-8-10--13-12-12-11-12|
E |-----------------------------------------|
B |-----------------------------------------|

E7 A E7 A
Pescador meia tigela, gosta muito de pescar
B7 E B7 E
Leva caixa de cerveja, mantimentos no picu
B7 E B7 E B7 E
Leva barraca de luxo, leva at a sacaria
A E B7 E
Pra trazer peixe pra casa ele sonha com esse dia

A B7 E
Cad o peixe pescador meia tigela
E7 A B7 E
Pra voc no passar fome come po com mortadela

Leva rede e linhada pra pegar peixe grado


E leva anzol mosquitinho pra pegar peixe mido
Minhoca e tripa de frango leva pra pescar Mandi
Na beira do rio s dorme no pega nem Lambari

De baixo de sua barraca se diz muito experiente


Porvinha e murioca, afogam no repelente
Acha que o rei do baralho, na trucada quer vencer
um griteiro danado e os peixe ningum v

Acorda com o p inchado e com bafo de cachaa


Dormiu mal a noite toda de tanto fazer arruaa
Pescador meia tigela, voltando pra moradia
Nem pra esposa ele fala que passou na peixaria

81
Pingo dgua
Zico & Zeca Joo Pacfico e Raul Torres

Tom: A
E |0-0-0-0-5-5-5-5-7-7-7-7-4-4-4-4-5-5-5-5-2-2-2-2-0-0----------10-7-5|
B |2-2-2-2-7-7-7-7-9-9-9-9-5-5-5-5-7-7-7-7-3-3-3-3-2-2-3-3-2---------5|
G#|----------------------------------------------------3-3-1-/10---6-5|
E |------------------------------------------------------------------5|
B |-------------------------------------------------------------------|

E7 A
Eu fiz promessa pra que Deus mandasse chuva
E7 A
Pra crescer a minha roa e vingar a criao
E7 A
Pois veio a seca e matou meu cafezal
E7 A
Matou todo o meu arroz e secou todo o algodo

Nessa colheita meu carro ficou parado


Minha boiada carreira quase morre sem pastar
Eu fiz promessa que o primeiro pingo dagua
Eu molhava a flor da santa que estava em frente ao altar

Eu esperei uma semana um ms inteiro


A roa estava to seca dava pena at de ver
Olhava ao cu cada nuvem que passava
Eu da santa me lembrava pra promessa no esquecer

Em pouco tempo a roa ficou viosa


A criao j pastava floresceu me cafezal
Fui na capela e levei trs pingos dagua
Um pingo caiu da chuva dois caram do meu olhar

82
Presente Especial
Tio do Carro & Santarm Tio do Carro e Jos Caetano Erba

Tom: A
E |/7-7-7-7-7-5-5/7--/12-12-12-12-12-10-10--9|/7-7-7-7-5-5-4-4-2-2-0-0------|
B |/9-9-9-9-9-7-7/9--/14-14-14-14-14-12-12-10|/9-9-9-9-7-7-5-5-3-3-2-2-3-3-2|
G#|------------------------------------------|-------------------------3-3-1|
E |------------------------------------------|------------------------------|
B |------------------------------------------|------------------------------|

|-----------------2x-----------------------|
E |/7-7-7-7-7-5-5/7--/12-12-12-12-12-10-10--9|4-6-5---5-4------|
B |/9-9-9-9-9-7-7/9--/14-14-14-14-14-12-12-10|------------7-5--|
G#|------------------------------------------|----------------5|
E |------------------------------------------|-----------------|
B |------------------------------------------|-----------------|

Eu achei no cho do shopping, na semana do natal


Uma cartinha amassada, na entrada principal
Fui lendo as primeiras linhas, no vi nisso nenhum mal
A criana que escrevia, pro Papai Noel pedia um presente especial

A D A
Eu no tenho cavalinho, nem radinho pra escutar
E7
Minhas roupinhas surradas, mas ainda d pra usar
Bm E7
Mas o que eu queria mesmo, isso eu queria ganhar
D E7 A
Se o senhor no se incomoda, uma cadeira de rodas, pra minha me passear

E |/7-7-7-7-7-5-5/7--/12-12-12-12-12-10-10--9|4-6-5---5-4------|
B |/9-9-9-9-9-7-7/9--/14-14-14-14-14-12-12-10|------------7-5--|
G#|------------------------------------------|----------------5|
E |------------------------------------------|-----------------|
B |------------------------------------------|-----------------|

Dessas de rodas macias, e no plano sai rodando


Quando chega na subida, eu mesmo vou empurrando
Quero ver mame sorrindo, quero ver mame passeando
E na noite de natal, eu vou ficar no quintal, a noite inteira esperando

Beijei a carta e chorei, e fiquei indignado


Nela no tinha endereo, e ningum tinha assinado
Somente no rodap, tinha um recado gravado
Eu moro l na favela, na ponta de uma viela, num lugar complicado

Passei a semana inteira, muito triste aborrecido


Mas na noite de natal, falaram nos meus ouvidos
Quem escreveu a cartinha, foi um menino sofrido
Mas hoje ele est feliz, as casas Andr Luiz, atenderam seu pedido

83
Preto Inocente
Tio Carreiro & Pardinho Teddy Vieira, Campo e Bento Palmiro

Tom: E
E |-------------------------------|
B |----0-0-5-4-0-0-----2-4-4-2-0--|
G#|0-1-0-0-5-3-0-0-0-1-1-3-3-1-0-0|
E |0-2-------------0-2-----------0|
B |-------------------------------|
Quando eu soube desse fato pelo rdio anunciado

E |-----------------------------|
B |----0---2-0-----------0------|
G#|0-1-0-1-1-0-1-0---0-1-0-1-0-0|
E |0-2---2-----2-0-2-0-2---2-0-0|
B |----------------4------------|
Que um tal preto fugido morreu por haver roubado

E |--------------------------------|
B |/4-4-4-4-5-4-4---2-2-2-0-----2-0|
G#|/3-3-3-3-5-3-3-1-1-1-1-0-1-0-1-0|
E |---------------2---------2-0----|
B |--------------------------------|
As faanhas que ele fez, me deixou muito amolado

E |-------------------------------|
B |----0-0-0---0-0----------------|
G#|0-0-0-0-0-1-0-0-0-0-1-1-0-0----|
E |0-0-------2-----0-0-2-2-0-0-2--|
B |----------------------------4-0|
Por alembrar que os pretos sempre so os mais visados

E |-----------------------------|
B |2-2-2-0-----2-0-4-4-0---0----|
G#|1-1-1-0-1-0-1-0-3-3-0-1-0-0-0|
E |--------2-0-----------2---0-0|
B |-----------------------------|
Mas diante da verdade eu vi que estava enganado

Vou contar o causo direito do modo que se passou


Por que o pai de Suzana num criminoso virou
Na hora que deu o tiro, foi que a Suzana gritou
Oh papai por que fez isso o senhor nem me consultou
Se eu ainda estou com vida o preto que me salvou

84
No mato eu tava lenhando quando pegou escurecer
O caminho que voltava eu no podia mais ver
Naquilo avistei um preto, de susto peguei tremer
Mocinha no tenha medo escutei ele dizer
Eu sou preto s na cor mal nenhum vou lhe fazer

Eu tava muito cansada o meu corpo no guentou


Fui sentar, de baixo dum toco uma cobra me picou
O preto rancou da faca, o meu p ele sangrou
O veneno da serpente com a boca ele tirou
Pra salvar a minha vida com a morte ele brincou

E aqui nessa cabana ele trouxe eu carregando


E que nem um sentinela na porta ficou vigiando
L fora na mata escura, as fera estava uivando
Abatido pelo sono o coitado foi cochilando
Veio o senhor de surpresa e a vida foi lhe tirando

Com as palavras de Suzana o seu pai pegou chorar


Fosse coisa que eu pudesse de novo a vida lhe dar
Com o sangue deste inocente, minha honra eu fui manchar
Este cho que ele pisava eu no mereo pisar
Sei que vou ser condenado, s deus pode me livrar

85
Previso do Tempo
Z Mulato & Cassiano Z Mulato

Tom: A
e|-------------------------------------|
B|-------------------------------------|
G|------------------------------------2|
D|--------3-4/6-6-6-6--4------------2--|
A|--4-4-5-4-5/7-7-7-7-5---------0-4----|
E|0-5-5-7-----------------0-2-4--------|

D |/11-11-11-11-7--9-6-7-6----------|
A |/12-12-12-12-9-11-7-9-7-9-7-9----|
F#|------------------------8-7-8-8-7|
D |------------------------------9-7|
A |---------------------------------|

A E7
Meu cumpadi esse ano a chuva chega mais cedo
A
To vendo certos sinais para mim no segredo
E7
Sabi cantar na seca sempre no mesmo arvoredo
A E7 A
Razo para prevenir-me, quariba moendo firme arodiando o rochedo

A formiga cortadeira que a gente chama sava


Fazer formigueiro novo forte sinal de chuva
Fora da beira do crgo, no lado fraco da curva
Numa elevao sequinha, fica o ninho da rainha que lhe cai como uma luva

Joo de barro faz a casa com a porta para o norte


sinal que vem do sul a tempestade mais forte
Constri a parte de traz, com barro de fazer pote
Pronto para resistir, pra chuva no invadir e matar o seus filhotes

Vamos ter chuva abundante aprepare a plantadeira


Plante arroz fora da margem pra evitar a corredeira
Guacho ta fazendo ninho bem alto na gameleira
No previso de louco, que o rio vai banhar coco la fora na capoeira

86
E |-------------|
B |-------------|
G |-------------|
D |2-0----------|
A |----4-2-0----|
E |----------3-2|

D |-------------|
A |5-3-2-0------|
F#|--------1----|
D |----------3-2|
A |-------------|

D/F# A D
Rapadura no giral, toucinho bem protegido
E7 A E7 A
No ponto certo do sal de palha bem revestido
E7 A
Ribeiro pode bufar, chuva no vai apertar um caboclo prevenido

***Verso s Violo

e|-------------------------------------|/09--9--9--9-5-7-4-5-4-2-0--------|
B|-------------------------------------|/10-10-10-10-7-9-5-7-5-3-2-5-2-3-2|
G|------------------------------------2|-------------------------------4-2|
D|--------3-4/6-6-6-6--4------------2--|----------------------------------|
A|--4-4-5-4-5/7-7-7-7-5---------0-4----|----------------------------------|
E|0-5-5-7-----------------0-2-4--------|----------------------------------|

***Verso S Viola
D |------------7-7-7-------------|/11-11-11-11-7--9-6-7-6----------|
A |--------7-9-6-6-6--9---------7|/12-12-12-12-9-11-7-9-7-9-7-9----|
F#|--7-7-8-7-8-------8---------7-|------------------------8-7-8-8-7|
D |--7-7-9------------------6-7--|------------------------------9-7|
A |7--------------------7-9------|---------------------------------|

87
Primeiro Brinquedo
Tio do Carro & Pagodinho Tio do Carro e Jos Caetano Erba

Tom: A
E |---------------------------|
B |------------5-5------------|
G#|5-5-5-5-5-6-5-5-6-5-5-3-5-6|
E |5-5-5-5-5-7-----7-5-5-4-5-7|
B |---------------------------|
O lugar que eu nasci de to feio dava medo

E |----------------------------------|
B |------------5-5-5---------5-------|
G#|5-5-5-5-5-6-5-5-5-6-5-5-5-5-6/8--8|
E |5-5-5-5-5-7-------7-5-5-5---7/9-9-|
B |----------------------------------|
A nossa casa ficava de baixo de um arvoredo

E |--------------------------------|
B |----0-0-0------------0----------|
G#|0-0-0-0-0-1-1-0--0-0-0-1-1-0-0-0|
E |0-0-------2-2-0--0-0---2-2-0-0-0|
B |--------------------------------|
Papai pra ganhar o po ia pra roa mais cedo

E |------------------------------------------------|
B |6-5-------------7-7-7-7-7/9-9-9------5----------|
G#|7-5-6-5-3-5-6---6-6-6-6-6/8-8-8--5-5-5-6-6-5-5-5|
E |----7-5-4-5-7--------------------5-5---7-7-5-5-5|
B |------------------------------------------------|
Vou contar o que eu me lembrei, com seis anos eu ganhei o meu primeiro brinquedo

O papai trouxe da venda um caixote de sabo


Colocou quatro rodinhas de madeira feito a mo
Fez um volante de arco imitando a direo
Ficou bonito o carrinho, fiquei falando sozinho com aquele presento

Eu soltava ele l em cima onde a estrada terminava


E pelo trilho do pasto meu carro desembestava
E eu vinha pilotando, as vezes me atrapalhava
Distersando do caminho, o malvado do carrinho um outro rumo tomava

Um presente mais bonito, porque que eu no ganhava


Essa histria de mame que pra mim sempre contava
Que nas estradas de terra papai Noel no passava

Mas este carrinho simples que meu pai fez de madeira


No trilho da minha vida vai rodar a vida inteira
Se a gente vai rolar na ribanceira
Porque o carrinho da vida, feito de dor doida e no de brincadeira

88
Rei dos Canoeiros
Tio Carreiro & Pardinho Z Carreiro e Vieira

Tom: E
E |/7-7-7-7-7-7-7-7-7-7-7-5-5-2-2---------------------------------------|
B |-------------------------------2-4-4-4-5-5-2-2---2/4------2-2-0-0----|
G#|-----------------------------------3-3-5-5-1-1-1-1/3--1-1-1-1-0-0-1-0|
E |-----------------------------------------------2------2-2---------2-0|
B |---------------------------------------------------------------------|

B7
Segunda Feira de tarde, tava caindo garoa
Cheguei na beira do rio, peguei a velha canoa
E a canoa foi rodando

E |-------------|
B |-------------|
G#|-------------|
E |--0-2-2-0-0--|
B |4-----------4|
A E
Ai ai eu fui sentado na proa

L no porto das Araras que o rio claro desagoa


Vou entrando na vazante, gua pesada recoa
Jogo a tarrafa ngua
Ai ai tirar peixe a gente soa

No lugar que no da nada, a gente desacoroa


Deixo meu anzol de espera, onde os peixes grande amoa
Volto alegre pro rancho
Ai ai quando fao pesca boa

O vento forte do sul, vem deitando as taboas


A gara da meia volta para descer na lagoa
Ela vem de manh cedo
Ai ai quando de tarde ela voa

Sou violeiro e pirangueiro, e s canto modas boas


Todas modas que eu invento quem escuta no enjoa
Junto com meu companheiro
Ai ai garanto a minha coroa

89
Samambaia
Baltazar Violeiro & Martinho Andr e Divino de Freitas

Tom: E
E |2-2-2-2-2-4-4/5-----7--4-4-4-4-4-5-5/7-7-9-7---------|
B |4-4-4-4-4-5-5/7--4-7---5-5-5-5-5-7-7/9-------10-9-7-5|
G#|-----------------------------------------------------|
E |-----------------------------------------------------|
B |-----------------------------------------------------|

E |2-2-2-2-2-4-4/5-5-5-5-4-2-/4-4-----------------|
B |4-4-4-4-4-5-5/7-7-7-7-5-4-/5-5-----------------|
G#|-----------------------------------------------|
E |----------------------------------0---2-0-4-2-0|
B |--------------------------------0---4----------|

E |-----------------------------------|
B |-----------------------------------|
G#|3-3-3-3-3-0-5--3-1-0---------------|
E |4-4-4-4-4-0-5--4-2-0-2----------2/7|
B |---------------------4--0-0-2-4----|
Meu amigo entre e olhe essa casa empoeirada

E |-----------------------------------|
B |-----------------------------------|
G#|5-5-5-5-5-3-3/7--7-7-5-3--0-0-1-3-0|
E |5-5-5-5-5-4-4/7--7-7-5-4--0-0-2-4-0|
B |-----------------------------------|
Eu j no aguento mais ver tanta coisa abandonada

E |---------------------------------|
B |---------------------------------|
G#|3-3-3-3-3-0-5--3-1-0-------------|
E |4-4-4-4-4-0-5--4-2-0-2-----------|
B |---------------------4--0-0-2-4-0|
At mesmo a samambaia, pendurada na parede

E |-----------------------------------|
B |-----------------------------------|
G#|5-5-5-5-5-3-3/7--7-7-5-3--0-0-1-3-0|
E |5-5-5-5-5-4-4/7--7-7-5-4--0-0-2-4-0|
B |-----------------------------------|
Sente falta de carinho de algum pra matar-lhe a sede

E |-------------------------------|
B |-------------------------------|
G#|5-5-5-5-0-0-5-5---7-7-7-7-8-8-7|
E |5-5-5-5-0-0-5-5---7-7-7-7-9-9-7|
B |-------------------------------|
Mas eu tambm sinto falta, de abrao e calor

90
E |---------------------------------|
B |---------------------------------|
G#|7-8-7-5-5-3-1-0-0---3-3-1-1-3-0-0|
E |7-9-7-5-5-4-2-0-0---4-4-2-2-4-0-0|
B |---------------------------------|
A samambaia esta murchando, eu morrendo de amor

B7 E
At mesmo a samambaia, necessita de carinho
B7 A E
Quanto mais um corao, que sofre e chora sozinho
B7 E
Se um dia ela voltar, pra matar esta paixo
B7 A B7 E
Jogar agua no seu vaso, amor no meu corao

Meu amigo entre e olhe essa casa como esta


No tenho mais esperana de um dia ela voltar
At mesmo os passarinhos que cantavam na gaiola
Pra no ver sofrer comigo eu soltei pra ir embora
Quando vai morrendo o dia, na janela o sol desmaia
Tambm vou morrendo aos poucos igualzinho a samambaia

91
Sangue Caipira
Lucas Reis & Thcio Marcos Violeiro

Tom: D
E |-----------------|-------------------|/7-7-7-7-5-4/5-4-3h5p7|
B |-----------------|-------------------|/8-8-8-8-7-6/7-6-5----|
G#|-----------------|-------------------|----------------------|
E |--0-2---0-2/5-2/3|------0------3----7|----------------------|
B |3-----3----------|0h2-2---/5-5---/8--|----------------------|

E |--0--------------------------------|
B |5---3-----0-------0-----0----------|
G#|------5-3-------------------1h3p1-1| A7 D
E |------------5-3-2---------2--------|
B |--------------------5-3------------|

Olhe meu amigo no teve outro jeito


J nasceu comigo dentro do meu peito
E trato com carinho o meu dom divino
Por esse instrumento eu sou fascinado
Se penso em viola e no seu ponteado
Fico emocionado desde menino

Ouvindo vov e meus tios cantando


Minha doce infncia fico recordando
Quantas cantorias cresci assistindo
Ao lembrar agora depois de homem feito
Pego na viola e abrao do meu jeito
Como me acordando de um sonho lindo

Pra ser cantador, vim predestinado


O sangue caipira corre em minhas veias
Meu cantar firme e a voz no bambeia
E meus dedos ponteiam em compasso marcado

Gostar de outro estilo tentei e no consigo


No por capricho mais trago comigo
Gosto definido por moda raiz
E fazendo parte do meu dia a dia
Se canto uma moda transmito alegria
na cantoria que me sinto feliz

Aos fs da viola agradeo cantando


Se violeiros foram estamos chegando
Firme ponteando com voz afinado
Minhas melodias relembram o passado
Velhos violeiros por mim so lembrados
E trouxe meus versos pra minha jornada

92
Saudade de Tio Carreiro
Delley & Dorivan Dombar

Tom: E
E |--4-4-4-4-5-5/7--4|4-5-5-5-5-7-7/9--5|7-7-7-7-9-9/11--7-4--2--0|
B |0-5-5-5-5-7-7/9-5-|5-----------------|-------------------------|
G#|------------------|--5-5-5-5-6-6/8-5-|7-7-7-7-8-8/10-7-3--1--0-|
E |------------------|------------------|-------------------------|
B |------------------|------------------|-------------------------|

E |--0-0-0-0-2-2/4--0|4-5-5-5-5-7-7/9--5|7-7-7-7-9-9/11--7-4--2--0|
B |------------------|5-----------------|-------------------------|
G#|--0-0-0-0-1-1/3-0-|--5-5-5-5-6-6/8-5-|7-7-7-7-8-8/10-7-3--1--0-|
E |------------------|------------------|-------------------------|
B |0-----------------|------------------|-------------------------|

Viola chegou no mundo, solteira sem companhia,


At que um belo dia, a providncia divina mandou pra ela um parceiro
Teve Pagode em Braslia, tambm o Rei do Gado, briga de Mineiro e Italiano
Arap e Amargurado, teve Chora Viola, Arrependida e Catimbau
Parece que pra avisar, teve Chamada a Cobrar, l do Leito de um Hospital
Da a razo de tanta saudade!!!

E |---12--12-12-12-10-9/10-10-9--5--4-5-6-7-7-7-5-2-3-4|
B |----------------------------------------------------|
G#|/12--12---12-12-10-8/10-10-8-5---3-5-6-7-7-7-5-1-2-3|
E |----------------------------------------------------|
B |----------------------------------------------------|

E |---12--12-12-12-10-9/10-10-9--5--4-5-6-7-7-5-4-4-2-0--------|
B |-----------------------------------------------------2-0----|
G#|/12--12---12-12-10-8/10-10-8-5---3-5-6-7-7-5-3-3-1-0-1-0-1-0|
E |---------------------------------------------------------2-0|
B |------------------------------------------------------------|

E B E
Saudade bateu de jeito, sufocando o corao
B E
Saudade bateu no peito, trazendo inspirao
A B E
Saudade de um grande amigo, um poeta um campeo
F# B A B E
Que foi embora pra sempre, deste mundo de iluso

Obs.: Toca parte da introduo de chora viola.

93
A B7 E
Eu sei que voc amigo, com sigo saudade tem
A B7 E
A viola est chorando saudade sente tambm
F# B7 F# B7
Ela foi a companheira, parceira como ningum
A E B7 E
Num soluo de saudade, fazendo um ponteio bem

E B E
Aos poetas dessa terra, peo tirar o chapu
B E
Pra um violeiro e poeta que hoje est l no cu
A B E
Foi ele o rei do pagode, cantador e seresteiro
A B E
Que no peito e na viola conquistou o Brasil inteiro
F# B F# B
Foi ele a maior bandeira, majestade violeiro
A E B E
Saudade, quanta saudade, saudade de Tio Carreiro

Chora viola!!!

Obs.: Este uma outra variao que pode ser utilizada junto com a declamao.

E |------------------|------------------|-------------------4--2--0|
B |------------------|------------------|--------------------------|
G#|--0-0-0-0-1-1/3--0|0-5-5-5-5-6-6/8--5|7-7-7-7-8-8/10--7-3--1--0-|
E |--0-0-0-0-2-2/4-0-|0-5-5-5-5-7-7/9-5-|7-7-7-7-9-9/11-7----------|
B |0-----------------|------------------|--------------------------|

94
Saudade
Tio Carreiro & Pardinho Tio Carreiro e Z Mato

Tom: G
e|-----------------|-----------------|
B|-----------------|-----------------|
G|-----------------|-----------------|
D|----0-0-2-3-3-2/5|2-3-5-5-5-4-4-2-0|
A|2-3-2-2-3-5-5-3/7|3-5-7-7-7-5-5-3-2|
E|3-5--------------|-----------------|

e|/7-7-7-7-7-7-7/10-10-10-10--8--8--8-5-5-3-2-3-2--------|
B|/8-8-8-8-8-8-8/12-12-12-12-10-10-10-7-7-5-3-5-3-5-3-1-0|
G|------------------------------------------------5-4-2-0|
D|-------------------------------------------------------|
A|-------------------------------------------------------|
E|-------------------------------------------------------|

e|-----------------|
B|-----------------|
G|----------------0|
D|0--------------0-|
A|---3-2---0----2--|
E|-------------3---|

G D G D G
Saudade palavra rica, Que martiriza e fica,
D
Dentro de um corao, da felicidade morta
G
Que a saudade conforta, trazida de uma paixo

G D G
Saudade tenho de algum, Uma saudade que vem
G7 C D G
De uma distncia sem fim, Ser que ela tambm
D C D G
Na falta de um outro algum, Sente saudade de mim

Eu vivo sempre pensando, meus olhos vivem chorando


No tenho felicidade, estou morrendo aos poucos
E o que me deixa mais louco, a maldita saudade

95
Sementinha
Liu & Lu Itapu e Dino Franco

Tom: E
E |11--9-5---9-7-4--7-5-2--4-5-7|11--9-5---9-7-4--7-5-2--4-5-4|7-6-5-4|
B |12-10-7--10-9-5--9-7-4--5-7-9|12-10-7--10-9-5--9-7-4--5-7-5|9-8-7-5|
G#|-----------------------------|-----------------------------|-------|
E |-----------------------------|-----------------------------|-------|
B |-----------------------------|-----------------------------|-------|

E B7 E
L na casa da fazenda onde eu vivia, numa manh de garoa e de cu nublado
B7 E
Achei no cho do terreiro uma sementinha, pensei logo em planta-la no cho molhado
B7 E
O tempo passou de pressa e a mocidade, chegou como chega noite ao cair da tarde
B7 E B7 E
Veio morar na fazenda uma caboclinha, graciosa bela meiga e na flor da idade

Iniciou-se um romance entre eu e ela, na sobra aconchegante de uma paineira


Dei a ela uma rosa com muita esperana, que eu colhi de um galhinho daquela roseira
Marcamos o casamento pro fim do ano, pra mim s existia ela e pra ela s eu
Pouco mais de uma semana pra o nosso idlio, a minha flor prometida doente morreu

Arranquei o p de rosas na primavera, e plantei na sepultura de minha amada


Todas tardes eu molhava com o meu pranto, a roseira foi murchando e acabou em nada
A chuva se foi embora e o sol ardente, matou a minha roseira e secou meu pranto
S no matou a saudade da caboclinha, pois eu vejo a sua imagem em todo o canto

Por isso que eu vivo longe da minha terra, seguindo a longa estrada de minha vida
Procuro viver sorrindo mais no entanto, eu choro ao me recordar amada querida
O destino como sempre caprichoso, cheio de traies e de sonhos loucos
Tal qual aquela roseira e a minha amada, eu precinto que tambm vou morrendo aos poucos

96
Sertanejo Solitrio
Joo Carreiro & Capataz Joo Carreiro

Tom: G

D |5/10--10-10-9---12---10--9--7-7/9|
A |---------------------------------|
F#|5/10-10--10-8--12---10--8--6--6/8|
D |---------------------------------|
A |---------------------------------|

D |10--10--10---9--14-12-12-10-9-7-5|
A |---------------------------------|
F#|10--10--10-8---13-12-12-10-8-6-5-|
D |---------------------------------|
A |---------------------------------|

D |--------------------10-10-10-9-7-5|
A |----------------------------------|
F#|--------------------10-10-10-8-6-5|
D |0/2-2-2-2-2-5--5/9----------------|
A |2/3-3-3-3-3-7-7/10----------------|

Da vida nunca tive receio, por fim at que veio a tristeza me judiar
Fazia por ela tanto gosto, por isso tamanho desgosto, que hoje me faz penar
Eu era feliz por demais, s que ela foi capaz, do nosso rancho abandonar
A minha vida inteira mudou, depois que ela me deixou t tudo fora de lugar
At a rosa branca murchou, s espinhos dela restou, meus olhos no param de chorar
Corao solua magoado a ser desprezado, como se qual, nenhum valor tivesse
Eita vida cruel, o que era doce virou fel, infelizmente isso acontece
Depois desse golpe sem perdo, prosei com meu corao, e jurei
No adianta querer bem, acontea o que acontecer
Nunca mais eu vou querer amar mais ningum

D |----------------------------------------|
A |----5-6-6-6-6-3-3/5--5-0-0-2-3-5-7-5h7-5|
F#|5-6-5-7-7-7-7-3-3/5--5-0-0-1-3-5-6-5h6-5|
D |5-7-------------------------------------|
A |----------------------------------------|

D |-------------------------------------------------------|
A |-----------------------------10-9----------------------|
F#|----------------------8h10-8------10-8------------3/5-5|
D |0/2-2-2-2-2--5/9-----9-----------------10-9-7-5---4/5-5|
A |2/3-3-3-3-3-7/10---10----------------------------------|

97
G D7 G D7 G
No terreiro do meu rancho, sentado sem companhia
G D7 G D7 G
Conversando com a lua, pois s ela entendia
G7 C D G
Como sofre este caboclo, vivendo aqui sem ningum
A D7 C D7
Passando noites sem sono, sofrendo no abandono
C E7 G
Com saudade de algum

Confortando a minha magoa, enganando o pensamento


Pego a viola e canto, disfaro o meu sofrimento
De um sertanejo triste, vivendo aqui esquecido
Sem ter ningum para amar, eu vivo a me perguntar
Mas que vida sem sentido

Qual sera o meu pecado, porque tamanho castigo


No sei qual o mal que eu fiz, mas j to arrependido
Deus no faz nada em vo, vou cumprindo o meu papel
Pra confortar meu lamento, penso que aps sofrimento
que se alcana o cu

98
Sou Violeiro No Sou Modelo
Marcos Violeiro & Cleiton Torres Marcos Violeiro

Tom: E
E |-------------------------------------------0------------|
B |-0------0------0------0------0------0-------------------|
G#|-----3-8--5--------7-5-----------5-3--1--------3-1p0---3|
E |---4--------5----5------7-4----4--------2----2-------2--|
B |5-------------7-------------5-------------4-------------|

E |---------------------------------------------------------|
B |-0------0------0------0------0------0--------------------|
G#|-----3-8--5--------7-5-----------5-3--1------7----10-[12]|
E |---4--------5----5------7-4----4--------2-2/7---11---[12]|
B |5-------------7-------------5----------------------------|

E B7 E
Analisando o dia a dia na academia da minha rua
B7 E
Gente saindo gente chegando, e a tal de malhao continua
A B7 E
Que saldvel isso no nego, mais eu no pego essa rotina
B7 E B7 E
Pois pra correr j tenho meu carro, bebo cerveja e ele gasolina

A E7 A AEA
No preocupo em ser malhado nasci ajeitado no fao apelo
B7 E
Cerveja e moda o dia inteiro, comer de tudo meu roteiro
B7 E
Sou violeiro no sou modelo

Ser gordo ou magro no vem ao caso, no atraso ter um estilo


Pra viver bem busque harmonia, na alegria vivo sorrindo
Voc malhando todo suado, e eu folgado abro a geladeira
J tem picanha na brasa assando, e algum penando fazendo esteira

O mal humor o trem no inlera, ningum tolera mal humorado


brincadeira os versos meus agradeo a deus sou abenoado
Entre os fs que malha ou no malha, no me atrapalha em cantar comigo
Por onde passo fao amizade deixo saudades cantando sigo

99
Sul de Minas
Marcos Violeiro & Cleiton Torres Marcos Violeiro

Tom: B
E |-------7-6h7p6|-------7-6h7p6|-9-7-6---------|
B |------7-------|------7-------|11-9-7-7---9/11|
G#|-----8--------|-----8--------|-------7-8-8/10|
E |--6-9---------|--6-9---------|---------9-----|
B |/7------------|/7------------|---------------|

B F#7 B
Moro em casa de barro, sob luz de lamparina
F#7 E B
Durmo em colcho de palha, com travesseiro de crina
F#7 B
Bebo agua da nascente, que vem purinha da mina
B7 E F#7 B
O meu caf da manh, no tem po com margarina
F#7 E B
Minha comida caseira, muito rica em protena

E |-------------------------|
B |4-2----------------------|
G#|----3-2-----------------3|
E |--------4-2-0---------2--|
B |--------------4-2-0-4----|

Levanto de manh cedo, e calo minha botina


Pego o caminho da roa, deixo o rancho da colina
Vou ouvindo a passarada, cantar na verde campina
As aguas da cachoeira, na queda forma neblina
Parece uma nuvem branca, caindo uma chuva fina

O sol se esconde na serra, trazendo a negra cortina


Antes que a noite aparea, minha jornada termina
A lua bela e risonha com sua luz matutina
Surge por traz da montanha, minha choupana ilumina
Eu chego e caio nos braos da minha linda menina

No por eu ser caipira que a timidez me domina


Apenas sou educado, pois a boa vida ensina
Sei entrar em ambientes onde tem gente granfina
No vou alm da fronteira sem conhecer a rotina
Ningum me chama ateno por falta de disciplina

Eu no tenho preconceito, minha mente cristalina


De deus nosso pai eterno tenho a proteo divina
A vida que estou levando o meu estilo combina
No vou dizer que a roa, seja um negcio da china
Mais eu vivo sossegado aqui no meu sul de minas

100
Transplante de Corao
Marcos Violeiro & Cleiton Torres Geraldinho e Donizete Santos

Tom: E
e|-------------------------------------------------------------|
B|----------------------------------------------------2-3-2h3p2|
G|----------------------2-1h2p1-------0-1--1-2-3-4--4----------|
D|-----------0-1-2--2-4-----------2-4--------------------------|
A|0-2-3-4--4---------------------------------------------------|
E|-------------------------------------------------------------|

e|---------------------------------------------------------------------|
B|---------------------------------------------------------------------|
G|--2-0-------------1-------1-2-4-1-----------2---1-------------------2|
D|------2-------------4-2-4---------2-0-----2-------4-2-2-0---------2--|
A|4-------4-0---------------------------0-4-----------------4-2-0-4----|
E|------------3-2------------------------------------------------------|

A E D E A
Aquele que cr em mim, mesmo morto viver
B7 E B7 E
a palavra de Deus, na escritura fui buscar
A E A
Esta frase tem a ver, com o fato que vou contar
G A E B7 E
De um homem to bondoso, com carter religioso que nasceu pra trabalhar

Por ser doador de rgos mostrava em seu documento


Seu amigo inseparvel era um cozinho cinzento
Um dia foi assaltado por um marginal violento
Onde o co saiu ileso, mais o homem indefeso, morreu pelos ferimentos

Quando o corpo era velado, causava admirao


O cozinho se apoiava, sobre a borda do caixo
Parecia despedir, do amigo do corao
Quando a terra lhe cobriu, o povo todo saiu s o cachorro que no

Sentindo falta do amor daquela alma to pura


Muitos quiseram adota-lo em lar de muita fartura
Mas ele no aceitava e durante a noite escura
No costume ele insistia e a noite ele dormia em cima da sepultura

Um dia um desconhecido por acaso apareceu


Chamando ele por nome, se torno amigo seu
Apertando o co no peito, corao reconheceu
Era o homem transplantado, o corao do finado, foi ele que recebeu

101
Utopia
Pe. Zezinho Pe. Zezinho

Tom: E
E |-------------------------------|
B |-------------------------------|
G#|0-1-2-3-1-5-3-1--0-1-2-3-1----1|
E |0-2-3-4-2-5-4-2--0-2-3-4-2--2-2|
B |----------------------------4--|

E |0-2-3-4-2-5-4-2-4-5-6-7-5-2-4|
B |----------------5-7-8-9-7-4-5|
G#|0-1-2-3-1-5-3-1--------------|
E |-----------------------------|
B |-----------------------------|

E B7 E
Das muitas coisas, Do meu tempo de criana
B7 E B7 A
Guardo vivo na lembrana, O aconchego de meu lar
F#m B7 A
No fim da tarde, Quando tudo se aquietava
B7 A B7 E
A famlia se ajeitava, L no alpendre a conversar
B7 E
Meus pais no tinham, Nem escola, nem dinheiro
B7 E E7 A
Todo dia, o ano inteiro, Trabalhavam sem parar
E
Faltava tudo, Mas a gente nem ligava
C#m F#m B7 E
O importante no faltava, Seu sorriso, seu olhar

Eu tantas vezes, Vi meu pai chegar cansado


Mas aquilo era sagrado, Um por um ele afagava
E perguntava, Quem fizera estrepolia
E mame nos defendia, Tudo aos poucos se ajeitava
O sol se punha, A viola algum trazia
Todo mundo ento pedia, Pro papai cantar com a gente
Desafinado, Meio rouco e voz cansada
Ele cantava mil toadas, Seu olhar ao sol poente

Passou o tempo, Hoje eu vejo a maravilha


De se ter uma famlia, Quando tantos no a tem
Agora falam, Do desquite e do divrcio
O amor virou consrcio, Compromisso de ningum
E h tantos filhos, Que bem mais do que um palcio
Gostariam de um abrao, E do carinho entre seus pais
Se os pais amassem, O divrcio no viria
Chamam a isso de utopia, Eu a isso chamo paz

102
Vara de Marmelo
Pardinho & Pardal Moacir dos Santos e Pardal

Tom: E
E |-------------------------------------|
B |-0----------0--------0----------0----|
G#|-----8-7-----------------7-5-3----3-0|
E |---0-9-7-7----7-5------0-7-5-4----4-0|
B |0--------9-0--9-7---0----------0-----|

E |--------------------------------------|
B |-0----------0--------0----------------|
G#|-----8-7-----------------7-7-7--------|
E |---0-9-7-7----7-5------0-7-7-7-------0|
B |0--------9-0--9-7---0----------0-2-4--|

B F# B
A mulher do meu vizinho me batia de chinelo
A B E
O marido dela soube corto vara de marmelo
B E B E
A mulher bate no di, pancadinha de namoro
E7 A B E
Cacetada do marido chegou regaar o couro

B E
Menina por seu amor eu j fiz at despacho
B E
Sou morro de fogo acima, sou agua de morro abaixo

Pra comer fruta gostosa eu subi no p de amora


Quem tiver mulher bonita cuidado que eu levo embora
A jabuticaba doce, gostosa e macia
Mas a fruta mais gostosa t no meio da forquia

Eu dei um beijo na rosa o espinho teve cime


Levei a rosa comigo e o espinho que se arrume
No dia que eu casei, teve festa e bate p
Vc ta casando hoje agora nis tem mui

103
Velha Porteira
Loureno & Lourival Osvaldo Francisco Lemes

Tom: D
e|------------10--9---------------9-7-5-------------------------|
B|------------12-10--------------10-8-7-------------------------|
G|--------------------------------------------------------------|
D|0-2-4-0-2-4----------0-2---0-2---------0-2-4-0-2-4-2-0--------|
A|-------------------4-----4-----------------------------4-2-0--|
E|-------------------------------------------------------------3|

e|---------------------------------|
B|--------------------------------3|
G|------------------------------2--|
D|--------------------------0-4----|
A|-----------------5--0-2-4--------|
E|2-3-4-5--4h5-4h5-----------------|

D A7
Ao passar pela velha porteira, senti minha terra mais perto de mim
G A7 D
De emoo eu estava chorando porque minha angustia chegava ao fim
D7 G
Eu confesso que era meu sonho rever a fazenda onde me criei
D A7 D
No via chegar o momento, de abraar de novo meu querido povo, que um dia deixei

Que surpresa cruel me aguardava, ao ver a fazenda como transformou


Quase todos dali se mudaram e a velha colnia deserta ficou
Os amigos que ali permanecem, transformaram tanto que nem percebi
E eles no me conheceram, e nem perceberam que os anos passara e eu envelheci

E voc minha velha porteira, tambm no est como outrora deixei


Seus moures pelo tempo rudo, no solo cado tambm encontrei
J no ouo as suas batidas, seus tristes rangidos lembrana me traz
Porteira, na realidade, voc a saudade do tempo da infncia que no volta mais

104
VERSO 2

Tom: A

E |-----------------------------------------------------------------|
B |----5-----5-7-10-9--------------7/9-7-5--------------------------|
G#|5-6-5-5-6-5-6-10-8--3-5-6-3-5-6-6/8-6-5---5-7-9-5-7-9-7-5-3-1-0--|
E |5-7---5-7-----------4-5-7-4-5-7-----------5-6-8-5-6-8-6-5-3-2-0-1|
B |----------------------------------------------------------------2|

E |----------------------------------|
B |-----------------------------5-3-2|
G#|------------------5--0-1-3-5-5-3-1|
E |0-2-3-4--2/4--2/4-5--0-2-4-5------|
B |2-3-4-5--3/5--3/5-----------------|

A E7
Ao passar pela velha porteira, senti minha terra mais perto de mim
D E7 A
De emoo eu estava chorando porque minha angustia chegava ao fim
A7 D
Eu confesso que era meu sonho rever a fazenda onde me criei
A E7 A
No via chegar o momento, de abraar de novo meu querido povo, que um dia deixei

Que surpresa cruel me aguardava, ao ver a fazenda como transformou


Quase todos dali se mudaram e a velha colnia deserta ficou
Os amigos que ali permanecem, transformaram tanto que nem percebi
E eles no me conheceram, e nem perceberam que os anos passara e eu envelheci

E voc minha velha porteira, tambm no est como outrora deixei


Seus moures pelo tempo rudo, no solo cado tambm encontrei
J no ouo as suas batidas, seus tristes rangidos lembrana me traz
Porteira, na realidade, voc a saudade do tempo da infncia que no volta mais

105
Velho Amor
Tio Carreiro & Pardinho Tio Carreiro e Donizete

Tom: E
E |-------------------------------------------------|
B |-------------------------------------------------|
G#|3-2-3-5-6-7-7-7-7-5-3-3/8-8-8-7-8-7-5---3---1---0|
E |4-3-4-5-6-7-7-7-7-5-4-4/9-9-9-7-9-7-5--4---2---0-|
B |-------------------------------------------------|

E |4-4/7-7-7-5-5-5-5-4-4-2-2-2-2/5-5-2-2/4-----12|
B |5-5/9-9-9-7-7-7-7-5-5-4-4-4-4/7-7-4-4/5--4/9--|
G#|----------------------------------------------|
E |----------------------------------------------|
B |----------------------------------------------|

E B
O cho que eu pisei, voc j pisou
A E
O ar que eu respirei, voc respirou
B
Da gua que eu bebi, voc j bebeu
A E
Do po que eu comi voc j comeu

B A E
Amor meu velho amor, amor que sofre e no reclama
E7 A B
Eu destru a sua juventude, e a cabei com sua sade
E B E
Fiz pra voc todo mal que pude, ainda sou o homem, que voc ama

Do pranto que eu chorei, voc j chorou


O frio que eu passei voc j passou
No quarto que eu dormi, voc j dormiu
A fome que eu senti voc j sentiu

106
Velho Peo
Tio Carreiro & Pardinho Teddy Vieira e Sulino

Tom: B
E |-------------------------------------|
B |7------------------------------------|
G#|7-8-7-7-5-3-2-2-12-12-10-10-8-8-7-7-7|
E |--9-7-7-6-4-2-2-12-12-11-11-9-9-7-7-7|
B |-------------------------------------|
Levantei um dia cedo, sentei na cama chorando

E |--------------------------------|
B |7-------------------------------|
G#|7-8-7-7-5-3-2--5-3-2-2-0-0------|
E |--9-7-7-6-4-2--6-4-2-2-0-0-2-2--|
B |-----------------------------4-4|
Meu velho tempo de peo, nervoso eu fiquei lembrando

E |-------------------------------|
B |-------------------------------|
G#|3-3-3-2-5-5-5-5-0-0-0-0-3-3-3-3|
E |4-4-4-2-6-6-6-6-0-0-0-0-4-4-4-4|
B |-------------------------------|
Senti uma dor no peito, igual brasa me queimando

E |-------------------------------|
B |-------------------------------|
G#|--------2-2-2-2----------------|
E |2-2-2-2-2-2-2-2-0-0-0---2-2-2-2|
B |4-4-4-4---------2-2-2-0-4-4-4-4|
Ouvi uma voz l fora parece que me chamando

E |---------------------------------------------------|
B |----------------0----------------------------------|
G#|------2h3-3-2-3-0--5-3-2-2------------------2------|
E |------2h4-4-2-4-0--6-4-2-2-2-0--------------2-2-0--|
B |0-2-4----------------------4-2-0-0--0-2-4-2---4-2-0|
Eu tive um pressentimento, que a morte na voz do vento, ali estava me rondando

Eu sa l pro terreiro, lembrei nas glrias passadas


Me vi montado num potro, correndo nas invernadas
Tambm vi um leno acenando de algum que foi minha amada
Que a tempos se despediu, pra derradeira morada
Tive um desgosto medonho, ao ver que tudo era um sonho, e hoje no sou mais nada

Pobre de quem nessa vida, na velhice no pensou


Ao me ver velho e doente um filho me amparou
Recebo tanta indireta da nora que no gostou
E meu netinho inocente chorando j me falou
A mame j deu estrilo, diz que aqui no asilo, mais eu gosto do senhor

107
Neste meu rosto cansado, queimado pelo mormao
Duas lagrimas correram espelho do meu fracasso
o prmio de quem na vida no quis acertar o passo
Abre os olhos muito tarde quando j eu era um bagao
Veja s a situao, de quem foi o rei dos peo, hoje no pode com um lao

A deus eu fiz uma prece pedindo pro companheiro


Que perdoe todas as faltas desse peo velho estradeiro
Quando eu deixar este mundo, meu pedido derradeiro
Desejo ser enterrado na sombra de um anjiqueiro
Para ouvir de quando em quando, as boiada ali passando, e os gritos dos boiadeiros

108
Velho Pianga
Ronaldo Viola & Joo Carvalho J. Barreto e Ado

Tom: E
E |-----------------------------------------------|
B |0-2-3-4-----/5-4-0-----2-0--------0------------|
G#|0-1-2-3-----/5-3-0-----1-0-1------0-1-1-0-1-1/3|
E |---------------------0-----2--------2-2-0-2-2/4|
B |--------0-4--------0----------0-4--------------|
E |-------------------------------------|
B |0-2-3-4-----/5-4-0-----2-0--------0--|
G#|0-1-2-3-----/5-3-0-----1-0-1------0-1|
E |---------------------0-----2--------2|
B |--------0-4--------0----------0-4----|
E |-----------------------------------|
B |--------------------------2p0------|
G#|--------------------------1p0-1p0-0|
E |0-0-0-0-0--2--0-0-0-0-0-------2p0-0|
B |-----------4-----------------------|

E B7 E B7
Na porta do rancho eu me sento tardinha, a mente se alinha por outros caminhos
E
Acendo o cigarro gostoso palheiro, olhando o terreiro e as aves nos ninhos
E7 A
Eu penso a vida no tempo passado, a velha ao meu lado em respeito se cala
E B7 E
Um filho distante, no sei onde anda, do velho Pianga a saudade quem fala

E |-----------------------|
B |0-2-0-----------2-0----|
G#|0-1-0-1-0-------1-0-1-0|
E |------2-0-2-0-------2-0|
B |----------4-2-0--------|

E B7 A E
Eu vejo as estradas e as velhas casinhas, traquejo que eu tinha em cima do arreio
B7 E
Baldrana bonita com dez margaridas, o plano de vida que fiz e no veio
F# B7 F# B7
Deixei o estrado e a poeira amiga, e a doce cantiga de um boiadeiro
A B7 E B7 E
Pra viver a vida com a mulher amada, sonhar com a estrada sobre um travesseiro

Nem sempre a vida nos deixa contente, s vezes a gente no tem o que quer
Nos duros caminhos que a vida oferece, o amor enaltece com uma mulher
J fui boiadeiro e peo de rodeio, j fiz galanteio pra grande platia
Montar burro bravo pra mim foi brinquedo, e o tal de ter medo eu riscava da idia

109
Velho Pouso de Boiada
Taviano & Tavares ndio Vaga e Dino Franco

Tom: D
D |12-12-11/12-12-11-11-10-11----9--9-7/9---9-7-7-6-7|
A |14-14-12/14-14-12-12-11-12---10-10-9/10-10-9-9-8-9|
F#|--------------------------------------------------|
D |--------------------------------------------------|
A |--------------------------------------------------|

D |7/9---9---7/9---9---7-7-7---7-5-4-9-7-5-4-2-0|
A |9/10-10---9/10-10---9-9-9---9-7-5------------|
F#|----------------------------------8-7-5-3-1-0|
D |---------------------------------------------|
A |---------------------------------------------|

D A7 D
Numa tardinha, fui andando por ai
A7
Coincidiu que descobri, pedacinhos de saudade
G A7
Tudo igualzinho a um retrato descorado
G A7 D
No cenrio abarrotado pelo avano da cidade
A7 D
A Figueirona com seu tronco j ferido
D7 G
Pelo golpe desferido de um machado sem amor
D
Condenada sem direito a julgamento
A7 D
Vai tombar qualquer momento pelas mos do malfeitor

D |-----------|
A |-----------|
F#|----------0|
D |------0-2--|
A |0-2-4------|

A7 D
Memorizando minha vida j passada
A7 D
Recordei naquele instante um velho pouso de boiada

110
E ali mesmo encontrei s um pedao
Do que um dia foi um lao de um habilidoso peo
E da baldrana as pequenas margaridas
Igual estrelas cadas espalhadas pelo cho
E do lombilho tropecei num velho caco
Um farrapo de um guanapo, que um dia foi chapu
Som de viola, explodia pelo ar
Parecendo anunciar, um fandango l no cu

Resto de cerca que j foi de algum potreiro


Armao de um cargueiro, e uma trempe enferrujada
E no palanque velho tronco de Ip
A inscrio que a gente l velho pouso de boiada
Num sonho louco retornei a mocidade
E ruminando a saudade at alta madrugada
Juro por deus que chorei naquele instante
Quando ouvi som de berrante despertando a peonada

111
Verdades da Vida
Taviano & Tavares Pedro Thomas e Taviano

Tom: D
E |/7-7-7-7-7-7/10---10h12p10-----10--10--10---14|
B |/8-8-8-8-8-8/12-12----------------------------|
G#|----------------------------/10--10--10---13--|
E |----------------------------------------------|
B |----------------------------------------------|

E |10h12p10--9--9-7-7-5-5-3-3/5-/44---5----10|
B |12-------10-10-8-8-7-7-5-5/7-/3-3----------|
G#|-----------------------------------5--/10--|
E |-------------------------------------------|
B |-------------------------------------------|

D A D
Vai Dezembro e vem Janeiro mais um ano que passa
A
mais um ano da vida, se desfez como fumaa

Do amanh ningum sabe, o futuro Deus que traa


G A D
Um segundo a mais de vida, no h dinheiro que faa
D7 G A D
Nossa vida joia cara, e est fortuna rara, Deus nos concede de graa

Muita gente lembra em Deus, s quando cai em desgraa


nos reveses da sorte ou quando a morte ameaa
E o pecador vira santo e na religio se abraa
Com promessa e penitencia pra receber uma graa
Mas essa f dura pouco, s sair do sufoco, nem perto de igreja passa

Lobo perseguindo lobo, leo devorando a caa


Essa a faanha do homem que a paz do mundo devassa
Tudo que se diz falso, tudo que faz trapaa
Vergonha saiu do uso, moral ta jogada as traas
Malandragem entrou em cena, a Terra hoje pequena, pra tantos golpes na praa

Ambio governa o mundo, a verdade est escassa


E a falta de respeito vai degenerando a raa
Na dana da falsidade nossa gerao fracassa
Honesto no vai pra frente, por mais esforo que faa
E sada no tem jeito, hoje quem anda direito, come o po que o diabo amaa

112
Versos Aos Ps do Homem
Tio Carreiro & Pardinho Geraldinho e Tio Carreiro

Tom: B

E |-----------------------------------------------------------------------------------|
B |-------------------5-4-2----------------------4-2-------2--------------------------|
G#|----3---3-2---2-0--------3-2------------3---3-----3-2-3-----2-3-----2-------------3|
E |--2---4-----2----------------0-4-2----2---2---------------4-----2-4---0---------2--|
B |4-----------------------------------4-----------------------------------4-2-0-4----|

B A E F#
Deixei distante a famlia pra vir a Braslia senhor presidente
E F# B
Conduzido por um tema de um srio problema que acaba com a gente
F#
Minha bagagem o fracasso mais trago um abrao dos amigos meus
E B F# B
Dexei toda a santaiada e fiz a jornada pra falar com Deus

E |-----------------------|
B |-----------------------|
G#|----2-----------------3|
E |2-4---4-2-0---------2--|
B |------------4-2-0-4----|

Por no marcar audincia com sua excelncia se eu for barrado


Alguns dos seus constituintes que so meus ouvintes transmitam o recado
No peo terra de graa mais que algo faa pra isso que eu venho
Por uma ajuda de custo no sei se justo perder o que tenho

Quando eu colhi meu caf eu pensei at em ser bom comeo


Mais como foi tabelado eu fui obrigado a vender no seu preo
Somente as terras que havia dei por garantia no financiamento
Foi quando veio a geada e na rea plantada colhi dez por cento

O banco quer minhas terras j tombei na guerra na luta roceira


Para salvar meu futuro que o senhor procuro por minha trincheira
Mesmo o gerente do banco mostrava ser franco e meu grande amigo
Com essa queda maldita agora ele evita de falar comigo

Minha herana da roa essa mo grossa que trago por prova


Creio senhor presidente ser eficiente a republica nova
Pensava em ser to feliz de tudo eu fiz pra no perder o nome
Mas minha f se alicera com esta conversa aos ps do homem

113
Vestibular da Viola
Eli Silva & Z Goiano Eli Silva

Tom: E
E |--12---12--0--0---5--5----7--7------------------|
B |--------------------------------0------0--------|
G#|12---12---0--0---5--5----7--7----------------3/8|
E |--------------------------------------0--2-4----|
B |-------------------------------0--2-4-----------|

E |--------------------------------------------------------------7|
B |-0----------------------------------0------0-------------7-9-9-|
G#|-----8---3-5-3-1-0----0-1-0-----------------------2-/7-8-7-8---|
E |7--7---------------2--------2-0-----------0--2-4--2-/7-9-------|
B |--------------------------------4--0--2-4----------------------|

E B7 E
No torneio que eu entrar ningum ponha a mo na taa
B7 E
No preciso de padrinho, eu ergo o trofu na raa
B7 F# B7
No vestibular da viola no qualquer um que passa

E |---------------------------|
B |2-0------------------------|
G#|----1-0--------------------|
E |--------2-0-----------2-2/7|
B |------------4-2-0---4------|

A E7 A
Pra esquentar o meu peito, no preciso de cachaa
B7 E B7 E
Minha voz sai com clareza, quente por natureza chega at sair fumaa

Dupla pura sertaneja no mercado est escassa


No canta mais o serto fala a lngua de outra raa
Francamente eu me envergonho de certas letras na praa
Fala mais de mil besteiras e a juventude acha graa
Enquanto que as coisas nossas, tudo que fala da roa est jogado para as traas

Conserva e d o estilo de uma casa sem vidraa


Onde os passarinhos cantam e a natureza me abraa
Caf quente vem do fogo, agua fria da cabaa
Camisa branca de festa, que o ferro a brasa passa
pura seda mineira, bato viola a noite inteira, e a danada no amaa

No carreiro da pintada o macaco no faz graa


Amanheo na estrada mas no durmo na quiaa
No paro em porta de venda, por no gostar de arruaa
A cachaa uma serpente, quem bebe sempre fracassa
Depois que tudo acontece, vem dizer que no merece ponha a culpa na manguaa

114
Viola Mulher
Eli Silva & Z Goiano Lando, Cludio Del Vcchio e Thomazini

Tom: B
E |----------------------12------11-----9---7-6-7|
B |------7---------------------------------------|
G#|----3-7-8-7-5-6-7-8-12--12--10--10--8-8--7-5-7|
E |--2-----9-7-6-7-8-9---------------------------|
B |4---------------------------------------------|

B F#7 B
possvel que algum violeiro, certo dia a viola inventou
F#7 E F#7 B
Inspirado de amor sorrateiro, que primeiro em seu peito morou
F#7 B
O desenho que foi escolhido, no seria um modelo qualquer
B7 E F#7 B
Tinha mesmo que ser parecido, com o corpo de uma mulher

De acordo com sua vontade, pela dor que sentia no peito


Ele tinha total liberdade, pra fazer a viola a seu jeito
Mas sem curvas jamais poderia, porque o amor uma reta no quer
So as curvas de uma fantasia, aproximam viola e mulher

Qualquer um violeiro admira, as trs curvas que so semelhantes


Ao cantar rimas de sua lira, todas elas so muito importantes
So as curvas da mulher amada, da viola que a preferida
E a serpente de uma estrada, nas quebradas de sua vida

Protegido por tantos abrigos, o violeiro constri o seu ninho


Preparado para qualquer perigo, ele nunca se sente sozinho
Mesmo quando a mulher no da bola, porque a viola se torna vazia
Sobra as curvas da sua viola, pra poder continuar na folia

115
Violeiro do Passado
Tio Carreiro & Pardinho Dino Franco e Zico Dias

Tom: E
E |---------------------|
B |9-9-9-7-7-----7------|
G#|8-8-8-7-7-7-7-7-8-7-7|
E |----------7-7---9-7-7|
B |---------------------|
Pra passar trabalho nesse mundo eu vim

E |-------------------|
B |-------------------|
G#|8-8-8-8-7-3-7-7-5-3|
E |9-9-9-9-7-4-7-7-5-4|
B |-------------------|
No tenho ningum que chore por mim

E |-------------------------|
B |--0-----------0-0-0-0----|
G#|0-0-1-0-1-0-0-0-0-0-0-1/3|
E |0---2-0-2-0-0---------2/4|
B |-------------------------|
Sofrendo desgosto saudade sem fim

E |-----------------------|
B |-----------------------|
G#|5-5-5-3-5-3-3/7-7-7-5-3|
E |5-5-5-4-5-4-4/7-7-7-5-4|
B |-----------------------|
Esta minha vida sempre foi assim

E |--------------------|
B |--------------------|
G#|0-1-3-7-7--0-0-0-0-0|
E |0-2-4-7-7--0-0-0-0-0|
B |--------------------|
Eu sou como as flores que no tem jardim

Quando eu me mudei da onde nasci


Um amor que tinha no me viu partir
Fiz corao duro mas no resisti
S eu que sei o quanto sofri
Varei quatro noites sem poder dormir

No tempo de moo eu me divertir


Meus amores tinham certeza de eu ir
Chegavam nas festas vinham me pedir
Pra que eu cantasse pra elas ouvir
Modinhas chorosas versos de ferir

116
O vosso convite quando eu recebi
Com muito prazer eu me preveni
Afinei a viola que at eu senti
Fui na sua festa e melhor no vi
Eu gozei carinhos que no mereci

E |---------------------------------|
B |--5--------------/9--------------|
G#|5-5-6-5-3-1-0-0--/8-5-5-5-5-5-5-5|
E |5---7-5-4-2-0-0-----5-5-5-5-5-5-5|
B |---------------------------------|
Eu vivo correndo terra, ai jogado daqui pra ali
Vou deixar de querer bem, ai chega o tempo que eu perdi

Pra ser violeiro foi que eu nasci


Em muitos catiras eu amanheci
Fiz moa orgulhosa chorar e sorrir
Suspirei saudade e me despedi
Mas a rosa branca nunca esqueci

117
Vontade de Trabalhar
Dombar & Domzete Dombar, Jadson e Joo Carreiro

Tom: E
E |---------------------------|----------------|
B |---0---0------0------------|-0------0-------|
G#|---------------------------|7---------------|
E |------5----5-4----4-2p0-2/7|----9-7----7-5-4|
B |2/5-5----5------5----------|----------------|

E |-------------------------------|------------------------------|
B |-0------------0----------------|----9-7-----------2-0---------|
G#|-----3-1p0----------3-1p0------|7-8-8-7-8-7---0-1-1-0-1-0-[12]|
E |---0-------2-0----0-------2-2/7|7-9-----9-7---0-2-----2-0-[12]|
B |0---------------0--------------|------------------------------|

ou

E |-------------------------------|----------------------------------|
B |-0------------0----------------|0---------------0-----------------|
G#|-----3-1p0----------3-1p0------|-------8-7------------1p0-----[12]|
E |---0-------2-0----0-------2-2/7|---7-9-----9-7----0-2-----2-0-[12]|
B |0---------------0--------------|-0-------------0------------------|

E B7
Essa noite eu sonhei, com um trabalho pesado
E
Ralei duro no batente, acordei todo suado
E7 A
Meu deus que decepo, esse meu sonho malvado
E B7
Na hora do pagamento, veja s o sofrimento
Meu sonho tinha acabado

B7 E
Um dom todo mundo tem, o meu ser violeiro
E7 A B7 E
Vontade de trabalhar eu tenho mas, passa bem ligeiro

Eu aluguei um comercio no ramo da cervejaria


Vendendo somente a vista o trem andava a mil maravilha
Com dez dias de servio, me cansei da experincia
Pus na mo do meu cunhado, comeou vender fiado
O negcio foi a falncia

O pau quando nasce torto, morre torto e no muda


No nasci pra trabalhar, a carcaa no ajuda
S vou no servio leve, uma farra por exemplo
Pra trabalhar eu to fora, beber e tocar viola
Pode chamar eu to dentro

118
Vou Onde Tem Amor
Joo Mulato & Douradinho Zezito e Bambico

Tom: E
E |-4---7-7---5-4---7-7---11-11----9--9---7-7|
B |-5---9-9---7-5---9-9---12-12---10-10---9-9|
G#|------------------------------------------|
E |------------------------------------------|
B |0---0-----0-----0-----0-------0-------0---|

E |-11-11---5-5----9--9---4-4---7-7---2-2----5-4|
B |-12-12---7-7---10-10---5-5---9-9---4-4----7-5|
G#|---------------------------------------------|
E |---------------------------------------------|
B |0-------0-----0-------0-----0-----0------0---|

E |-7-7---11-11---5-5----9--9---4-4---7-7---2-2----5-4-[12]|
B |-9-9---12-12---7-7---10-10---5-5---9-9---4-4----7-5-[12]|
G#|----------------------------------------------------[12]|
E |----------------------------------------------------[12]|
B |0-----0-------0-----0-------0-----0-----0------0----[12]|

E B7 E
Vou a onde tem amor, a onde tem dio no quero ir
A B7 E
No lugar que tem viola eu chego e no quero mais sair

B7 E
No tenho divertimento estou vivendo contrariado
B7 E
Por causa de uma morena deixou meu corao machucado
E7 A E
At o p de rosa branca est murchando e no d mais flor
B7 E
Parece que adivinha que j morreu o nosso grande amor

Em troca do meu amor a morena fez s ingratido


E a malvada tristeza veio morar em meu corao
No fao mais serenata, vivendo aqui no tenho alegria
Vou embora pra bem longe viver no meio das cantorias

A saudade me maltrata quero rever o meu povo amigo


Se Deus quiser amanh estarei nos braos do amor antigo
Vou rever a minha gente, aqui eu no posso mais ficar
Se no for o quanto antes essa saudade vai me matar

119

Interesses relacionados