Você está na página 1de 4

AlPorteiro

MarliaMendona
Composio:DiSousa/AdrianoBernardes/CarlosPitty

song.key: D

Primeira Parte:

D9 A9
Pegue suas coisas que esto aqui
G
Nesse apartamento
D9 A9
Voc no entra mais
D9 A9
Olha o que me fez voc foi me trair
G D9
Agora arrependido quer voltar atrs

Segunda Parte:

G
J deu
Bm
Cansei das suas mentiras mal contadas

Cresci
Em
No acredito mais em conto de fadas
G A9
No adianta vir com baixarias

D/F# G
Mor___reu
Bm
A mulher carinhosa e fiel que te amava
A9 G
Pega o elevador, a sua mala e vaza
Em A9
To avisando l na portaria
Em A9
Que aqui voc no entra mais

Refro:
D9
Al porteiro
A9
T ligando pra te avisar
Em
Que a partir de agora eu t solteira
G
J me cansei da brincadeira
Em A9 G
Chame o txi que ele vai pagar

A9 D9
Al porteiro
A9
T ligando pra te avisar
Em
Esse homem que est a
D/F# G
Ele no pode mais subir
A9
T proibido de entrar

Solo:

1 de 3

E|-------5---2-5-5/7-5\-2------------------------------|
B|-----3------------------3----------------------------|
G|---2-------------------------------------------------|
D|-0---------------------------------------------------|
A|-----------------------------------------------------|
E|-----------------------------------------------------|

2 de 3

E|-------5---2-5---7\--5\--3\--2--3--------------------|
B|-----2-----------8\--7\--5\--3--5--------------------|
G|---2-------------------------------------------------|
D|-----------------------------------------------------|
A|-0---------------------------------------------------|
E|-----------------------------------------------------|
3 de 3

E|-3-55p3-2------------------------5/7----------------|
B|------------5-3--5h7p5--3-------3--------------------|
G|---------------------------2h4-----------------------|
D|-----------------------------------------------------|
A|-----------------------------------------------------|
E|-----------------------------------------------------|

Base do Solo:

D9 A9 Em D/F# G

Repete Segunda Parte:

D/F# G
J deu
Bm
Cansei das suas mentiras mal contadas

Cresci
Em
No acredito mais em conto de fadas
G A9
No adianta vir com baixarias

D/F# G
Mor____reu
Bm
A mulher carinhosa e fiel que te amava
A9 G
Pega o elevador, a sua mala e vaza
Em A9
To avisando l na portaria
Em A9
Que aqui voc no entra mais

Refro Final:

D9
Al porteiro
A9
T ligando pra te avisar
Em
Que a partir de agora eu t solteira
G
J me cansei da brincadeira
Em A9 G
Chame o txi que ele vai pagar

A9 D9
Al porteiro
A9
T ligando pra te avisar
Em
Esse homem que est a
D/F# G
Ele no pode mais subir
A9 D5
T proibido de entrar

1 de 1

E|-------5-------5/7-5---------------------------------|
B|-----3-----------------------------------------------|
G|---2-------------------------------------------------|
D|-0---------------------------------------------------|
A|-----------------------------------------------------|
E|-----------------------------------------------------|

A9 Bm D/F# D5 D9 Em

1 2 1 2 3 1 1 1 2
2 4 2 2
3 4
4

1
2 3 4

Interesses relacionados