Você está na página 1de 4

SentimentoLouco

MarliaMendona
Composio:MarliaMendona/JulianoTchula/ElcioDiCarvalho

song.key: G

Intro: G

E|-6/7-7-7-7--10-10-10-10---8--7-7--------------------|
B|-7/8-8-8-8--12-12-12-12--10--8-8--------------------|
G|----------------------------------------------------|
D|----------------------------------------------------|
A|----------------------------------------------------|
E|----------------------------------------------------|

Primeira Parte:

G
S queria mais um pouco
D9
Desse sentimento louco

De acordar de madrugada
Bm
Pra fazer de novo

E se isso for pecado


Em
Quem vai nos julgar?

Am7
Quem nunca amou nunca vai entender
C9
Essa loucura que eu sinto por voc
G
S sei que bom demais
D9
bom demais

G
Mas quando te vejo com ela
D9
A minha mo gela

A minha boca vai secando


Bm
Eu vou ficando muda

meu Deus me ajuda


Em
O que que eu vou fazer?

Am7
Eu sei que t com ela

Pra manter as aparncias


C9
Mas nas suas horas de carncia
G
Voc vem me ver

Pr-refro

Am7
E a gente faz amor
Em
Me diz que sou o seu amor
C9 D9 G
E vai embora antes do dia amanhecer

Refro:

D9
Eu sei que errado e quem vai entender
Am7
Voc casado e eu no quero perder
C9
Eu sei, t com ela mas amo voc
G
Voc e ela no tem nada a ver

D9
Eu sei que errado e quem vai entender
Am7
Voc casado e eu no quero perder
C9
Eu sei, t com ela mas amo voc

Voc e ela no tem nada a ver


G
Sou mais eu e voc
Solo:

Parte 1

E|-3-3-3-3--5/7-7-7-7--5-3-5--------------------------|
B|----------------------------------------------------|
G|-4-4-4-4--5/7-7-7-7--5-4-5--------------------------|
D|----------------------------------------------------|
A|----------------------------------------------------|
E|----------------------------------------------------|

Parte 2

E|-5-5-5-5--6/8-8-8-8--7-5-3--3-3-3-3-2-3-------------|
B|----------------------------5-5-5-5---3-------------|
G|-5-5-5-5--7/9-9-9-9--7-5-5--------------------------|
D|----------------------------------------------------|
A|----------------------------------------------------|
E|----------------------------------------------------|

Pr-refro

Am7
E a gente faz amor
Em
Me diz que sou o seu amor
C9 D9 G
E vai embora antes do dia amanhecer

Refro:

D9
Eu sei que errado e quem vai entender
Am7
Voc casado e eu no quero perder
C9
Eu sei, t com ela mas amo voc
G
Voc e ela no tem nada a ver

D9
Eu sei que errado e quem vai entender
Am7
Mas eu amo voc
C9 G
Voc e ela no tem nada a ver

D9
Eu sei que errado e quem vai entender
Am7
Voc casado e eu no quero perder
C9
Eu sei, t com ela mas amo voc

Voc e ela no tem nada a ver


G
Sou mais eu e voc

Am7 Bm C9 D9 Em G
1
2 1 1 2 3 1
2 2 3 4 3 2 3 4
3 4