Você está na página 1de 2

NoOlhePraTrs

CapitalInicial
Composio:AlvinL./DinhoOuroPreto

Tom: G

Intro: G Am7 C C G4/B


G Am7 C Am7 Se o que errado ficou certo
e|------------------------------------------- Am7
B|------------------------------------------- As coisas so como elas so
G|------------------------------------------- C G4/B
D|-9-5h7-5---5-5---9-5h7-7---5-5---9-5h7-5--- Se inteligncia ficou cega
A|---------7---------------7---------------9- Am7
E|------------------------------------------- De tanta informao

e|-------- Refro:
B|-------- G
G|-------- e|-3-3-3-----------------------------------
D|9------- B|-3-3-3-----------------------------------
A|-------- G|-0-0-0---------------0-------------------
E|-------- D|-0-0-0-------0--0h2----------------------
A|-2-2-2--0h2------------------------------
e|-------------------------------------------| E|-3-3-3-----------------------------------
B|-------------------------------------------|
G|-------------------------------------------|
D|-7/9-9-7-7h9-7-5-5-------------------------| G Am7
A|-------------------------------------------| Se no faz sentido
E|-------------------------------------------| C
Discorde comigo
G
G Am7 No nada demais
Nem tudo como voc quer Am7
Bm7 Am7 So guas passadas
Nem tudo pode ser perfeito C
G Am7 Escolha uma estrada
Pode ser fcil se voc G Am7 C
Bm7 Am7 e no olhe, no olhe pra trs
Ver o mundo de outro jeito
C G4/B G Am7
e|----------------------------------------- Voc quer encontrar a soluo
B|---------1-------1-------0-------0------- Bm7 Am7
G|-----------0-------0-------0-------0----- Sem ter nenhum problema
D|-------2-----2---------0-----0----------- G Am7
A|-0-2-3---------3-----2---------2--------- Insistir em se preocupar demais
E|----------------------------------------- Bm7 Am7
Cada escolha um dilema
Am7 C G4/B
e|-0-------3-3-3-3-3----------------------- Como sempre estou mais do seu lado que
B|-1-1-----1-1-1-1-1----------------------- Am7
G|-2---2---2-2-2-2-2----------------------- voc
D|-2-----2-2-2-2-2-2----------------------- C G4/B
A|-0-------0-0-0-0-0----------------------- Siga em frente em linha reta
E|----------------------------------------- Am7
E no procure o que perder
Refro:
G Am7
Se no faz sentido
C
Discorde comigo
G
No nada demais
Am7
So guas passadas
C
Escolha uma estrada
G
e no olhe, no olhe pra trs

Solo 4x: G Am7 C G|


e|-------------------------------------------|
B|-----8~-----8~-10b12-10b12-10b12-8~-----8--|
G|-9-9----9-9-------------------------7h9----|
D|-------------------------------------------|
A|-------------------------------------------|
E|-------------------------------------------|
e|-------------------------------------------|
B|-------8~-------8~-10b12-10b12r10-8~-----8-|
G|-7h9-9----7h9-9----------------------7h9---|
D|-------------------------------------------|
A|-------------------------------------------|
E|-------------------------------------------|
e|-------------------10----10----10-------
B|-------8~-------8~-10b12-10b12-10b12-8~-
G|-7h9-9----7h9-9-------------------------
D|----------------------------------------
A|----------------------------------------
E|----------------------------------------
e|-----------
B|----8------
G|7h9--------
D|-----------
A|-----------
E|-----------
e|-------------------------------------------|
B|-------8~-------8~-10b12-10b12r10-8~-------|
G|-7h9-9----7h9-9----------------------------|
D|-------------------------------------------|
A|-------------------------------------------|
E|-------------------------------------------|

Am7 Bm7 C G G4/B


1 1 1
2 2 1 2
3 3 2 3
4