Você está na página 1de 5

Como Grande o Meu Amor Por Voc

Roberto Carlos
Composio: Roberto Carlos

Tom: G

Intro: Gm7 C7 F Bb/F F F#

Gm7(11) C7
Eu tenho tanto pra lhe falar

F7M Am7 Ab7(11+)


Mas com palavras no sei dizer

Gm7 C7 F7M F7M(9)/A Dm7


Como grande o meu amor por voc

Gm7(11) C7
E no h nada pra comparar

F7M Am7 Ab7(11+)


Para poder lhe explicar

Gm7 C7 F Bb/F F Dm7(9/11)


Como grande o meu amor por voc

Gm7 C7
Nem mesmo o cu, nem as estrelas

F7M Dm7
Nem mesmo o mar e o infinito

Gm7 C7
No maior que o meu amor

F7M F7M(9)/A Dm7


Nem mais bonito

Gm7 C7
Me desespero a procurar

F7M Dm7
Alguma forma de lhe falar

G4(7/9) G7 G4(7/13) G7 C7(4/13) C7 Gm7


Como grande o meu amor por voc
F# Gm7(11) C7
Nunca se esquea nenhum segundo

F7M Am7 Ab7(11+)


Que eu tenho o amor maior do mundo

Gm7 C7
Como grande o meu amor

F Bb/F F
Por voc

Solo: Bbm7 Eb7 Ab7M Fm7 Bbm7 Eb7 C7(4) C7 F#

Gm7(11) C7
Nunca se esquea nenhum segundo

F7M Am7 Ab7(11+)


Que eu tenho o amor maior do mundo

Gm7 C7
Como grande o meu amor

F7M F7M(9)/A Dm7


Por voc

Gm7 C7 F Bb/F F
Mas como grande o meu amor por voc

(Tablaturas)

(Intro)

Gm7 C7 F
E|---1---1---------1-------------5\1--------|
B|-3---3---3-----3---3-5-------------1------|
G|-----------3-----------3-----5-----2------|
D|-------------------------5---------3------|
A|---------------------3-----3--------------|
E|-------3-----3-------------------1--------|
Bb/F F F#
E|------------------------------------------|
B|-3-----1-----1----------------------------|
G|-3-----2-----2----------------------------|
D|-3-----3-----1----------------------------|
A|------------------------------------------|
E|-1-----1-----2----------------------------|

(Arranjo - 2 parte)

G4(7/9) G7 G4(7/13) G7
E|------------------------------------------|
B|-1-------0-0---------5-------3-3----------|
G|-2-------0-0---------5-------4-4----------|
D|-3-------3-3---------3-------3-3----------|
A|------------------------------------------|
E|-3---------3---------3---------3----------|

C7(4/13) C7 F#
E|-5-------3-3------------------------------|
B|-6-------5-5---------1--------------------|
G|-3-------3-3---------2--------------------|
D|---------------------1--------------------|
A|-3---------3------------------------------|
E|---------------------2--------------------|

(Passagem final da 3 parte)

F Bb/F F
E|------------------------------------------|
B|-1---1-3-1---1----------------------------|
G|-2-3---3---3-2----------------------------|
D|-3-----3-----3----------------------------|
A|------------------------------------------|
E|-1-----1-----1----------------------------|

(Solo + base em um violo)


Bbm7 Eb7
E|-1-4-1-4-------1-4-1-3--------------------|
B|---------2-------------2------------------|
G|-----------3-------------3----------------|
D|---------------------1-----1--------------|
A|-------1-----1----------------------------|
E|------------------------------------------|

Ab7M Fm7
E|-----3---3--------3-4-1------1-4-1-4------|
B|-2/4---4---4----4-------1------------2----|
G|-------------5------------1------------3--|
D|------------------------------------------|
A|-----------------------------------1-----1|
E|---------4-----4------1-----1-------------|

Eb7 C7(4) C7 F#
E|-1-4-1-3----------------------------------|
B|---------2---2-4p2-1-----1-------1--1-----|
G|-----------3-3-------3-------3---3--2-----|
D|-------1-----1---------3-------3-2--1-----|
A|-------------------3-------3-----3--------|
E|------------------------------------2-----|

(Solo)

Bbm7 Eb7 Ab7M Fm


E|---4---4----4---3----3---3----3-4---------|
B|-6---6----6---6----4---4----4-----6-------|
G|------------------------------------------|
D|------------------------------------------|
A|------------------------------------------|
E|------------------------------------------|

Bbm7 Eb7 C7(4) C7 F#


E|---4---4----4---3--9-11-9-8---------------|
B|-6---6----6---6---------------------------|
G|------------------------------------------|
D|------------------------------------------|
A|------------------------------------------|
E|------------------------------------------|
Ab7(11+) Ab7M Am7 Bb/F Bbm7 C7
1 6 1 1
2 2 3 2
1 3 4 4 3 4
2 3 1 2
4 3 4

C7(4) C7(4/13) Dm7 Dm7(9/11) Eb7 F


1 3 5 4 1
3 2 2
2 3 4 2 3 4 3 4 3 4
4
2 3 4

F# F7M F7M(9)/A Fm Fm7 G4(7/13)


1 2 1 2 1 2 3 4
3 4 3 4
1 2 3 4

3 4 3 4

G4(7/9) G7 Gm7 Gm7(11)


1 1
2
3 4 1 2 3 4 2 3 4
3
4