Você está na página 1de 13

Composição: Steven Tyler

Tom: G#

Introdução: Fm/C Cm D5-/C Db5-/C

Fm/C

F4/C

F5/C

Fm/C

Cm

D5-/C Db5-/C

Fm/C

F4/C

F5/C

Fm

(Riff da Introdução)

Fm/C

Cm

E|-4-----4-----3-----3----------------------|

B|-6-----6-----4-----4----------------------|

G|----5-----5-----5-----5-------------------|

D|------------------------------------------|

A|------------------------------------------|

E|------------------------------------------|

D5-/C

Db5-/C

E|-4-----4-----3-----3----------------------|

B|-3-----3-----2-----2----------------------|

G|----5-----5-----5-----5-------------------|

D|------------------------------------------|

A|------------------------------------------|

E|------------------------------------------|

Fm/C

F4/C

E|-4-----4-----6-----6----------------------|

B|-6-----6-----6-----6----------------------|

G|----5-----5-----5-----5-------------------|

D|------------------------------------------|

A|------------------------------------------|

E|------------------------------------------|

F5/C

E|-8-----8-----8~---------------------------|

B|-6-----6-----6~---------------------------|

G|----5-----5-------------------------------|

D|------------------------------------------|

A|------------------------------------------|

E|------------------------------------------|

| A| ------------------------------------------ | E| ------------------------------------------ |

Fm/C

Cm

E|-4-----4-----3-----3----------------------|

B|-6-----6-----4-----4----------------------|

G|----5-----5-----5-----5-------------------|

D|------------------------------------------|

A|------------------------------------------|

E|------------------------------------------|

D5-/C

Db5-/C

E|-4-----4-----3-----3----------------------|

B|-3-----3-----2-----2----------------------|

G|----5-----5-----5-----5-------------------|

D|------------------------------------------|

A|------------------------------------------|

E|------------------------------------------|

Fm/C

F4/C

E|-4-----4-----6-----6----------------------|

B|-6-----6-----6-----6----------------------|

G|----5-----5-----5-----5-------------------|

D|------------------------------------------|

A|------------------------------------------|

E|------------------------------------------|

F5/C

E|-8-----8----6--4----6---------------------|

B|-6-----6----6--6----6---------------------|

G|----5-------------------------------------|

D|------------------------------------------|

A|------------------------------------------|

E|------------------------------------------|

Fm

E|--8-----8----8--6-------------------------|

B|--9-----9----8--6----6--------------------|

G|-10----10---------------------------------|

D|------------------------------------------|

A|------------------------------------------|

E|------------------------------------------|

(Riff da Introdução)

E|------------------------------------------| B|------------------------------------------|

G|-6--5--6--5--6--5--6--5-------------------|

D|------------------------------------------|

A|------------------------------------------|

E|------------------------------------------|

E|------------------------------------------|

B|-----------5-6/8-6/8-9p8-9/11-------------|

G|-6p5-3-5-6--------------------------------|

D|------------------------------------------|

A|------------------------------------------|

E|------------------------------------------|

E|------------------------------------------|

B|-9h11p9\8-8h9p8\6-6h8p6\4-4h6p4\1-2p1h2/13|

G|------------------------------------------|

D|------------------------------------------|

A|------------------------------------------|

E|------------------------------------------|

Primeira Parte:

Fm/C

Cm

E|-4-----4-----3-----3----------------------|

B|-6-----6-----4-----4----------------------|

G|----5-----5-----5-----5-------------------|

D|------------------------------------------|

A|------------------------------------------|

E|------------------------------------------|

D5-/C

Db5-/C

E|-4-----4-----3-----3----------------------|

B|-3-----3-----2-----2----------------------|

G|----5-----5-----5-----5-------------------|

D|------------------------------------------|

A|------------------------------------------|

E|------------------------------------------|

Fm/C

Cm

Every time that

D5-/C

Db5-/C

I look in the mirror

Fm/C

Cm All these lines

D5-/C

Db5-/C

In my face gettin' clearer

Fm/C Cm

D5-/C Db5-/C The past is gone

Fm/C

Cm D5-/C

Db5-/C

It went by

Fm/C

like dusk to dawn

Cm

E|-4-----4-----3-----3----------------------|

B|-6-----6-----5-----5----------------------|

G|----5-----5-----5-----5-------------------|

D|------------------------------------------|

A|------------------------------------------|

E|------------------------------------------|

Fm/C

Cm

E|-4-----4-----3-----3----------------------|

B|-6-----6-----5-----5----------------------|

G|----5-----5-----5-----5-------------------|

D|------------------------------------------|

A|------------------------------------------|

E|------------------------------------------|

Fm/C

Cm Isn't that the way?

F4/C

F5/C

Everybody's got their dues (Riff 1) In life to pay

(Riff 1 – Guitarra Base)

E|------------------------------------------| B|------------------------------------------|

G|-6--5--6--5--6--5--6--5-------------------|

D|------------------------------------------|

A|------------------------------------------|

E|------------------------------------------|

E|------------------------------------------| B|------------------------------------------|

G|-6--5--6--5--6--5--6--5-------------------|

D|------------------------------------------|

A|------------------------------------------|

E|------------------------------------------|

(Riff 1 – Guitarra Solo)

E|----------------------------------------------------| B|----------------------------------------------------|

G|-5-----5-----6-----6-----7-----7-----8------8-------|

D|-5-----5-----6-----6-----7-----7-----8------8-------|

A|----7-----7-----8-----8-----9-----9-----10-----10---|

E|----------------------------------------------------|

Segunda Parte:

F5

Eb5

I know, nobody knows

Db5

Eb5

Where it comes and where it goes

F5

Eb5

I know it's everybody's sin

Db5

Eb5

You got to lose to know how to win

( Fm/C

Cm

D5-/C Db5-/C )

( Fm/C

F4/C

F5/C )

Fm/C

Cm

E|-4-----4-----3-----3----------------------|

B|-6-----6-----4-----4----------------------|

G|----5-----5-----5-----5-------------------|

D|------------------------------------------|

A|------------------------------------------|

E|------------------------------------------|

D5-/C

Db5-/C

E|-4-----4-----3-----3----------------------|

B|-3-----3-----2-----2----------------------|

G|----5-----5-----5-----5-------------------|

D|------------------------------------------|

A|------------------------------------------|

E|------------------------------------------|

Fm/C

F4/C

E|-4-----4-----6-----6----------------------|

B|-6-----6-----6-----6----------------------|

G|----5-----5-----5-----5-------------------|

D|------------------------------------------|

A|------------------------------------------|

E|------------------------------------------|

F5/C

E|-8-----8-----8~---------------------------|

B|-6-----6-----6~---------------------------|

G|----5-----5-------------------------------|

D|------------------------------------------|

A|------------------------------------------|

E|------------------------------------------|

(Riff 2)

E|----------------------------------------------------| B|----------------------------------------------------|

G|-------------1--------------------------------------|

D|---------------3~-----------------------------------|

A|-------1-2-3----------------------------------------|

E|-1-3-4----------------------------------------------|

Terceira Parte:

Fm/C

Cm

E|-4-----4-----3-----3----------------------|

B|-6-----6-----4-----4----------------------|

G|----5-----5-----5-----5-------------------|

D|------------------------------------------|

A|------------------------------------------|

E|------------------------------------------|

D5-/C

Db5-/C

E|-4-----4-----3-----3----------------------|

B|-3-----3-----2-----2----------------------|

G|----5-----5-----5-----5-------------------|

D|------------------------------------------|

A|------------------------------------------|

E|------------------------------------------|

Fm/C

Cm Half my life's

D5-/C

Db5-/C

In books' written pages

Fm/C

Cm Lived and learned

D5-/C

Db5-/C

From fools and from sages Fm/C Cm

D5-/C Db5-/C

You know it's true Cm All the things

Db5-/C

Fm/C

D|5-/C

Come back to you

Primeiro Refrão:

F5

Sing with me

Eb5

Sing for the year

Db5

Sing for the laughter

Eb5

And sing for the tear

F5

Sing with me

Eb5

If it's just for today

D5

Maybe tomorrow

Db5

( Db5

C5 )

The good lord will take you away

(Riff do Refrão)

E|----------------------------------------------------| B|----------------------------------------------------| G|----------------------------------------------------|

D|-10------------10-----------------------------------|

A|----8-8-8-8-------10-10-10-10-----------------------|

E|----------------------------------------------------|

E|----------------------------------------------------| B|----------------------------------------------------| G|----------------------------------------------------|

D|-10--------------/10-8-8-8-8------------------------|

A|----11-11-11-11-------------------------------------|

E|----------------------------------------------------|

Ponte: Fm/C F4/C

F5/C

F5/C

Fm/C F4/C

F5/C

F5/C

Fm/C

F4/C

F5/C

E|---4-----4-----6-----6-----6-----8-----8--|

B|-----6-----6-----6-----6-----6-----6-----6|

G|-5-----5-----5-----5-----5-----5-----5----|

D|------------------------------------------|

A|------------------------------------------|

E|------------------------------------------|

E|---8/-13~---------------------------------|

B|-5----------------------------------------|

G|------------------------------------------|

D|------------------------------------------|

A|------------------------------------------|

E|------------------------------------------|

F5/C

E|-8-----8----------8---------8-4-----------|

B|-6--6-----6----6-----6-6--6-----6-8---8b9~|

G|-5----------------------------------------|

D|------------------------------------------|

A|------------------------------------------|

E|------------------------------------------|

Fm/C

F4/C

F5/C

E|---4-----4----------6-----6-------8-----8-|

B|-----6------6-----6---6-----6-------6-----|

G|-5-----5------5-5-------5-----5-5-----5---|

D|------------------------------------------|

A|------------------------------------------|

E|------------------------------------------|

E|---8/-13~---------------------------------|

B|-6-6/-------------------------------------|

G|------------------------------------------|

D|------------------------------------------|

A|------------------------------------------|

E|------------------------------------------|

F5/C

E|-8-----8----------8-----------------------|

B|-6--6-----6----6-----6--------------------|

G|-5----------------------------------------|

D|------------------------------------------|

A|------------------------------------------|

E|------------------------------------------|

Segundo Refrão:

F5

Sing with me

Eb5

Sing for the year

Db5

Sing for the laughter

Eb5

And sing for the tear

F5

Sing with me

Eb5

If it's just for today

D5

Maybe tomorrow

Db5

( Db5

C5 )

The good lord will take you away

(Solo 1)

E|------------------------------------------8---------|

B|-------------8------------------------------8-11-8--|

G|-----------8--------10b12r10p8----8-10b12-----------|

D|-10~--10~--8---10~-------------10-------------------|

A|----------------------------------------------------|

E|----------------------------------------------------|

E|----------------------------------------------------|

B|--------------------8-11b13~~-----------------------|

G|-10-8-10----8-10b12---------------------------------|

D|---------10-----------------------------------------|

A|----------------------------------------------------|

E|----------------------------------------------------|

Quarta Parte:

Bb5

Dream on

C5

Dream on

Db5

Dream on

F5

Dream yourself a dream comes true

Eb5

(Solo 2)

E|----------------------------------------------------|

B|-16b18~---16b18~---16b18~--16b18~-------------------|

G|----------------------------------------------------|

D|----------------------------------------------------|

A|----------------------------------------------------|

E|----------------------------------------------------|

E|----------------------------------------------------|

B|-16b18--16--13----------~---------------------------|

G|---------------15--13-------------------------------|

D|----------------------15--13------------------------|

A|-----------------------------15-14-13---------------|

E|--------------------------------------16-13---------|

Bb5

Dream on

C5

Dream on

Db5

Dream on

F5

And dream until your dream comes true

Eb5

(Solo 3)

E|----------------------------------------------------| B|----------------------------------------------------|

G|-------------------------------8-8----10-8----8-10--|

D|-----------6~-----8-6---6-8/10-----10------10-------|

A|-8p6---6-8------8-----8-----------------------------|

E|-----8----------------------------------------------|

E|----------------------------------------------------|

B|-9-9----11b13~~

G|-----10---------------------------------------------|

----------------------------------|

D|----------------------------------------------------|

A|----------------------------------------------------|

E|----------------------------------------------------|

Bb5

Dream on

 

C5

Dream on

 

Db5

Dream on

 

Eb5

Dream on

 

F5

Dream on

 

G5

Dream on

 

Ab5

Bb5

Dream on

( Db5

C5 )

Terceiro Refrão:

F5

Sing with me

Eb5

Sing for the year

Db5

Sing for the laughter

Eb5

And sing for the tear

F5

Sing with me

Eb5

If it's just for today

Db5

Maybe tomorrow

Eb5

The good lord will take you away

F5

Sing with me

Eb5

Sing for the year

Db5

Sing for the laughter

Db5

And sing for the tear

F5

Sing with me

Eb5

If it's just for today

D5

Maybe tomorrow

Db5

( Db5

C5 )

The good lord will take you away

( C5 ) Ab5 4ª 1 3 4
( C5
)
Ab5
4ª 1
3
4

Eb5 1 3 4
Eb5
1
3
4

Bb5

1 3 4 F4/C 2 3 4
1
3
4
F4/C
2
3
4
C5 1 3 4
C5
1
3 4

F5 1 3 4
F5
1
3 4
Cm 1 2 3
Cm
1
2
3

F5/C 1 2 4
F5/C
1
2
4

D5

5ª 4ª 1 3 4 Fm 8ª 4ª 1 2 3
1
3
4
Fm
1
2
3

Db5

1 3 4 Fm/C 1 2 3
1
3
4
Fm/C
1
2
3
G5 1 3 4
G5
1
3
4