Você está na página 1de 2

Jorge e Mateus - Pra Ter o Seu Amor

Intro: (G D/F# Bm) C G D/F# Em (Em D G) C G D/F# (C D C


G) D/F#

E|--3-2-----0-0---7h8-10---10--7--10--7-----2-2-3-5-3-2-2h3-3----|
B|------3-3------------------------------------------------------|
G|---------------------------------------------------------------|
D|---------------------------------------------------------------|
A|---------------------------------------------------------------|
E|---------------------------------------------------------------|

E|--3-2-----0-0---7h8-10---10--7--5--2----7h8-7-5-3~-----2~------|
B|------3-3------------------------------------------0h3---------|
G|---------------------------------------------------------------|
D|---------------------------------------------------------------|
A|---------------------------------------------------------------|
E|---------------------------------------------------------------|

G
Agora j no tem mais jeito
D/F#
Amar at seus defeitos no d pra fugir
Em C
Se eu tenho um milho de motivos pra te conquistar

Eu no vou desistir
G
Voc frio, calor
D/F#
febre de amor, saudade de paixo
C C D Am G
Eu sigo sempre rumo ao seu corao

Refro:

G Am Bm C
Pra ter o seu amor
G
Eu viajei pelo seu mundo
D/F#
Me vi com seus olhos
D/F# D Em9
Descobri quem sou, i i i

Em9 D Bm C
Pra ter o seu amor
G D/F#
Te pedi pra Deus de presente
C D
e pra me ver contente
G
Ele te inventou

Intro: (G D/F# Bm) C G D/F# Em (Em D G) C G D/F# (C D C


G) D/F#

(Repete tudo)

Final: C D/F# G

----------------- Acordes -----------------


G = 3 2 0 0 0 3
Am = X 0 2 2 1 0
Em9 = 0 2 4 0 0 0
Bm = X 2 4 4 3 2
C = X 3 2 0 1 0
D = X X 0 2 3 2
D/F# = 2 X 0 2 3 2
Em = 0 2 2 0 0 0