Você está na página 1de 103

Caderno de Tablaturas e Cifras para Viola Caipira

Volume 1
2 Ed.

Igor Basso (igorbasso17@gmail.com)


Julho/2014

1
Msicas
A Mentira e a Verdade .................................................................................................................. 5
A Sereia e o Nego D'gua .............................................................................................................. 6
A Vaca J Foi Pro Brejo .................................................................................................................. 7
A Viola e o Violeiro ........................................................................................................................ 8
Amor e Saudade ............................................................................................................................ 9
Aos Olhos de Deus....................................................................................................................... 10
Bem-Te-Vi Granfino ..................................................................................................................... 11
Bicho do Mato ............................................................................................................................. 12
Boiadeiro de Palavra ................................................................................................................... 13
Boiadeiro e Boiada ...................................................................................................................... 14
Caboclo do Mato ......................................................................................................................... 15
Caador do Invinhema ................................................................................................................ 16
Caador ....................................................................................................................................... 17
Cadeira de Balano ...................................................................................................................... 18
Cadeira Vazia ............................................................................................................................... 19
Caipira de Fato ............................................................................................................................ 20
Caipira de Gravata ....................................................................................................................... 21
Caminheiro .................................................................................................................................. 22
Canoeiro ...................................................................................................................................... 23
Cantando Para Meu Povo............................................................................................................ 24
Capiau.......................................................................................................................................... 25
Carreiro Vitorioso ........................................................................................................................ 26
Carteiro........................................................................................................................................ 27
Casinha Verde ............................................................................................................................. 28
Comitiva Pantaneira .................................................................................................................... 29
Desabafando ............................................................................................................................... 30
Desatino ...................................................................................................................................... 31
Destino de Violeiro ...................................................................................................................... 32
Dom Brasileiro ............................................................................................................................. 33
Pra Caba.................................................................................................................................... 34
Era Uma Boiada ........................................................................................................................... 35
Estrelinha Branca ........................................................................................................................ 36
Felicidade .................................................................................................................................... 37
Figura do Velho ........................................................................................................................... 38
Flor do Ip ................................................................................................................................... 39

2
Francisco de Assis ........................................................................................................................ 40
Gente da Minha Terra ................................................................................................................. 41
Grito de Liberdade ...................................................................................................................... 42
Histria da Minha Saudade ......................................................................................................... 43
Homem at de Baixo Dgua ....................................................................................................... 44
Ingrata Maria ............................................................................................................................... 45
Janela da Vida.............................................................................................................................. 47
Joo e Maria ................................................................................................................................ 48
Jos Lavrador............................................................................................................................... 49
Juventude na Viola ...................................................................................................................... 50
Largado ...................................................................................................................................... 51
Mgoa de Boiadeiro .................................................................................................................... 52
Maior Fera do Mundo ................................................................................................................. 53
Mar Vermelho ............................................................................................................................. 54
Meu Passado ............................................................................................................................... 55
Moa Caipira ............................................................................................................................... 56
Mundo Velho............................................................................................................................... 57
Nas Garras da Saudade ............................................................................................................... 58
O Cervejeiro................................................................................................................................. 59
O Ciumento ................................................................................................................................. 60
O Doutor e o Caipira.................................................................................................................... 63
O Pagode Continua...................................................................................................................... 64
O Trono da Saudade .................................................................................................................... 65
Oi Paixo...................................................................................................................................... 66
Pagode em Braslia ...................................................................................................................... 67
Pagode na Praa .......................................................................................................................... 68
Pai Joo........................................................................................................................................ 69
Pai, Amigo Irmo ......................................................................................................................... 70
Paixo Desenfreada..................................................................................................................... 71
Piracicabano ................................................................................................................................ 72
Poeira da Estrada ........................................................................................................................ 73
Poesia no se Vende ................................................................................................................... 74
Pra te Amar de Vez ...................................................................................................................... 75
Prato do Dia................................................................................................................................. 76
Preto Velho.................................................................................................................................. 77
Primeira Chuva ............................................................................................................................ 78

3
Prisioneiro ................................................................................................................................... 79
Quem Ama no Esquece ............................................................................................................. 80
Rainha do Meu Destino ............................................................................................................... 81
Rei da Pecuria ............................................................................................................................ 82
Sapato 42..................................................................................................................................... 84
Saudade ....................................................................................................................................... 85
Ser Feio No Defeito................................................................................................................. 86
Serto Ainda Serto.................................................................................................................. 87
Serto Vazio ................................................................................................................................ 88
Sistema Bruto .............................................................................................................................. 89
Sonho de Caboclo........................................................................................................................ 90
Tarde no Serto ........................................................................................................................... 91
Tudo Corre................................................................................................................................... 92
Um Novo Dia ............................................................................................................................... 93
Um Restinho de Voc .................................................................................................................. 94
Um Sonho com Tio Carreiro ...................................................................................................... 95
Universo Caipira .......................................................................................................................... 97
Vale Verde ................................................................................................................................... 98
Viola Divina.................................................................................................................................. 99
Viola Pagodeira ......................................................................................................................... 100
Viola Vermelha .......................................................................................................................... 101
Violeiro Moderno ...................................................................................................................... 103

4
A Mentira e a Verdade
Marcos Violeiro & Cleiton Torres Tiago Viola

Tom: D
e|5h7p5-5-5-5-3-3-2-2-2-2-2-2-0-0----------------|
B|7-----7-7-7-5-5-3-3-3-3-3-3-2-2-3-3-2----------|
G|--------------------------------4-4-2-2-2-4-6-6|
D|--------------------------------------4-4-5-7-7|
A|-----------------------------------------------|
E|-----------------------------------------------|

e|-----------------------|
B|-----------------------|
G|--------------2-0------|
D|--------0-2-4-----4-2--|
A|0-2-3-4---------------2|
E|-----------------------|

e|7h8p7-7-7-7-5-5-3-3-3-3-3-3-2-2-0-0---0-0-2-3-0-0/2|
B|8-----8-8-8-7-7-5-5-5-5-5-5-3-3-2-2-3-2-2-3-5-2-2/3|
G|------------------------------------4--------------|
D|---------------------------------------------------|
A|---------------------------------------------------|
E|---------------------------------------------------|

e|-----------------------|
B|-----------------------|
G|-----------------------|
D|----------------------0|
A|0-2-3-4-2-0-2-0-----0--|
E|----------------3-2----|

Mediante a tantos fatos me coloco a refletir


Sobre a mentira e a verdade vou tentando concluir
Existe gente que mente no intuito de progredir
Nos caminhos da verdade que podem conseguir

Quem atravs da mentira a verdade tenta ocultar


No pode mentir pra deus nem preciso mencionar
Quem sofre com a mentira s deus pode acalentar
A mentira deixa marcas que no da pra apagar

Desde o tempo da infncia a mentira esta presente


Fazendo grandes estragos nos coraes mais carentes
Quem cresce baseado nela fracassa instantaneamente
Pra fazer brotar um mal a mentira a semente

A verdade um amuleto nas mos de quem acredita


Que ser honesto e sincero deixa a vida mais bonita
A mentira um erro j esta dizendo a escrita
Enquanto que a boa f a verdade bendita

5
A Sereia e o Nego D'gua
Goiano & Paranaense Goiano e Donizete Santos

Tom: E
E |-----------------------------------------
B |-----------------------------------------
G#|----------------------5---8---7h8p7---5-3
E |/10-10-10-10-10-9-4/5---/9---7-h9p7--5--4
B |-----------------------------------------

E |/12-12-11-11-9-9/11---/12---7---5-4
B |----------------------/14---9---7-5
G#|/12-12-10-10-8-8/10----------------
E |-----------------------------------
B |--------------------0-----0---0----

E B7 E
Joguei a tarrafa na agua vejam s o que eu peguei
B7
Foi grande a minha surpresa quase no acreditei
A E
Meu corao disparou quando a tarrafa puxei
B7
Pare ser somente minha
E B7 E
Uma sereia rainha do fundo da gua tirei

Sete dias de romance com a sereia que eu passei


Seus carinhos e seus agrados eu confesso que gostei
Beijo doce igual o dela ainda eu no achei
Meu mundo ficou vazio
Sereia pulou no rio pr onde foi eu no sei

Eu fiquei ali parado sem saber o que falar


Quis at pular na gua pra sereia procurar
O rio era muito fundo eu no sabia nadar
Tomei pinga na garrafa
Preparei minha tarrafa pra de novo arremessar

Joguei de novo a tarrafa numa grande agonia


S pra ver se a sereia novamente eu pegaria
Quando puxei a tarrafa de susto as pernas tremia
Aumentou a minha mgoa
Peguei foi o nego d`agua credo em cruz ave Maria

6
A Vaca J Foi Pro Brejo
Tio Carreiro & Pardinho Tio Carreiro, Lourival dos Santos e
Vicente P. Machado
Tom: A
E |/12-12-10-9-- 9- 9- 9--12-12-7-10- 9-7- 9
B |-------------10-10-10--14-14-9-12-10-9-10
G#|----------------------------------------- E7 A
E |-----------------------------------------
B |-----------------------------------------

A
Mundo velho est perdido, J no endereita mais
E7
Os filhos de hoje em dia j no obedece os pais

o comeo do fim, J estou vendo sinais


D E7 A E7 A
Metade da mocidade esto virando marginais
D
um bando de serpente:
A E7 A
Os mocinhos vo na frente, as mocinhas vo atrs...

Pobre pai e pobre me, Morrendo de trabalhar


Deixa o coro no servio pra fazer filho estudar
Compra carro a prestao, Para o filho passear
Os filhos vivem rodando fazendo pneu cantar
Ouvi um filho dizer:
O meu pai tem que gemer, no mandei ningum casar...

O filho parece rei, Filha parece rainha


Eles que mandam na casa e ningum tira farinha
Manda a me calar a boca, Coitada fica quietinha
O pai um zero esquerda, um trem fora da linha
Cantando agora eu falo:
Terreiro que no tem galo quem canta frango e franguinha...

Pra ver a filha formada, Um grande amigo meu


O po que o diabo amassou o pobre homem comeu
Quando a filha se formou, Foi s desgosto que deu
Ela disse assim pro pai: "quem vai embora sou eu"
Pobre pai banhado em pranto:
O seu desgosto foi tanto que o pobre velho morreu...

Meu mestre Deus nas alturas, O mundo meu colgio


Eu sei criticar cantando: Deus me deu o privilgio
Mato a cobra e mostro o pau, Eu mato e no apedrejo
Drago de sete cabeas tambm mato e no alejo
Estamos no fim do respeito:
Mundo velho no tem jeito, a vaca j foi pro brejo...

7
A Viola e o Violeiro
Tio Carreiro & Pardinho Tio Carreiro e Lourival dos Santos

Tom: E
E |/7-7-7-7-7-7-7-7-7-6-5-/9-7-/7-7-7-5-4
B |--------------------------------------
G#|/7-7-7-7-7-7-7-7-7-6-5-/8-7-/7-7-7-5-3
E |--------------------------------------
B |--------------------------------------

Riff

E |-------------------
B |-------------------
G#|1p0----------------
E |----2p0-------2-2/7
B |--------4-0-4------

E B7 E
Tem gente que no gosta da classe de violeiro
B7
No brao dessa viola defendo os meus companheiros
A E
Pra destruir nossa classe, tem que me matar primeiro
B7 Riff E
Mesmo assim depois de morto ainda eu atrapalho
B7 E
Morre o homem fica a fama e minha fama da trabalho

Todos que nascem no mundo tem seu destino traado


Uns nascem pra ser engenheiro outros pra ser advogado
Eu nasci pra ser violeiro, me sinto bastante honrado
De tanto pontiar viola meus dedos to calejado
So um violeiro que canta para os 22 estados

Viva o povo mineiro cantado de recortado


Tambm viva os gacho que no xote respeitado
Viva os violeiros do norte, que so canta improvisado
Goiano e Paranense cantam tudo bem cantado
Viva o cho do Matogrosso que o bero do rasqueado

Representando So Paulo este pagode um recado


As musica do estrageiro que invadi nosso mercado
Vamo faze uma guerra, cada violeiro um soldado
Nossa viola a carabina e nosso peito um trem blindado
A viola e o violeiro que no pode ser derrotado

8
Amor e Saudade
Tio Carreiro & Pardinho Dino Franco e Jos Milton Faleiros

Tom: B
E |-----------------------------------------
B |-----------------------------------------
G#|--------0-2-2/3-3-2h3p2-----------------7 ou
E |2-2-2-2-0-2-2/4-4-2h4p2-2---2/7-6-4-2/7-7
B |4-4-4-4-----------------4-0-----7-5-4----

E |---------------------------------------
B |---------------------------------------
G#|----------2-2h3-2h3p2-----------------7
E |2-2-2-2-4-------------4-2-2/7-6-4-2/7-7
B |---------------------------------------

B
Eu passei na sua terra j era de madrugada
F#7
As luzes da sua rua estavam quase apagadas

Fiquei horas recordando a nossa vida passada


E F# F#7 B
Do tempo do nosso amor que se acabou tudo em nada.

A sua casinha triste estava toda fechada


E no varal do alpendre umas roupas penduradas
Conheci no meio delas sua blusa amarelada
Aumentou minha saudade eta vida amargurada.

Do tempo que ns se amava eu fiz muitas caminhadas


Chegava na sua casa mesmo sendo hora avanada
Voc de casaco preto vinha toda enamorada
Ali ns dois se abraava sem que ningum visse nada.

Mas no mundo tudo passa a sorte predestinada


Voc se casou com outro eu segui minha jornada
Deixei voc me acenando l na curva da estrada
Adeus cabocla faceira rosa branca perfumada.

9
Aos Olhos de Deus
Goiano & Paranaense Goiano

Tom: B
E |------[7]-|--------------------|-----------------|
B |----[7]---|--------4-4/9-7-----|------2----------|
G#|--[7]-----|------3---------7---|----2---/8-7-----|
E |[7]-------|----2-------------9-|--2----------9-7-|
B |----------|--4-----------------|4----------------|

E |---------------/12-11--------/11-9------11-7|
B |------5-5/9-9---------12-7---------11-7-----|
G#|----3---------------------------------------|
E |--4-----------------------------------------|
B |5-------------------------------------------|

B F#7 B
Pela f que tenho em Deus, vou dar meu depoimento
F#7 B
Jesus Cristo o caminho, o nosso livramento
F#7 B
Muito obrigado meus Deus, pela voz e o meu talento
F#7 B
A f alimenta minha alma e pra manter a minha calma
F#7 B
Deus me deu entendimento

Jesus Cristo aqui na terra deixou os seus mandamentos


Esto escritos na bblia, pra no ter esquecimento
E neles ficaram claro, os nossos procedimentos
Quem seguir outros caminhos vai semear os espinhos
Do seu prprio ferimento

Igual nossa prpria sombra acompanha os movimentos


Deus est presente em tudo, sabe at meus pensamentos
Todo bem que praticamos, pra Deus um alimento
Quem faz um bem ganha seu ponto, no dia do grande encontro
Na hora do julgamento

Os olhos de Deus monitoram todos os nossos seguimentos


um satlite divino, fazendo o rastreamento
A lei divina perfeita, Jesus Cristo cem por cento
Quem querer a salvao, na bblia tem a lio
Pra o nosso arrependimento

10
Bem-Te-Vi Granfino
Marcos Violeiro & Cleiton Torres Jos Calixto e Fabiano Rancharia

Tom: B
E |---------------------/7-7-7-6-6-6-4-6-4-0-2|
B |--------------4-4/5--/9-9-9-7-7-7-5-7-5-2-4|
G#|--------2-3-5------------------------------|
E |----2-4------------------------------------|
B |4-5----------------------------------------|

E |-----------------------------------------------|
B |-----------------------------------------------|
G#|--------2-3/5-3-2---/8-7-----------------------| F#7 B
E |----2-4------------------9-7-6-4-2-0----2/7-7-7|
B |4-5-----------------------------------4--------|

F#7 B
Na cidade onde moro amanheo escutando, a cantiga dolente de um bem-te-vi
F#7 B
Se os seus olhos vissem meus olhos chorando, ele ia cantar muito longe dali
F#7 B F#7 B
Seu cantar vai buscar o meu doce passado, que vem e retorna nas assas do vento
F#7 B
Parece fumaa de um fogo agitado, sufocando o ego do meu sentimento

Pois ali no vejo o jacarand, onde cantarolava o canrio da terra


No vejo trara no meu sambur, e nem a lagoinha na no p da serra
No vejo perdiz na trilha do gado, e nem as abelhas no plen da flor
No ouo mugido de boi confinado, l na passarela do embarcador

Tambm no deparo com minha mezinha, ralando mandioca no velho galpo


Papai no debulha milho pras galinhas, nem trata dos porcos l no mangueiro
Do passado eu tenho somente a cantiga, desse passarinho simples forasteiro
E a rara presena de alguma formiga, lambendo cimento sobre meu terreiro

Chega de cantiga bem-te-vi granfino, chega de lembranas l do meu serto


triste viver nas mos do destino, longe dos currais, boiada e peo
Quando voc canta volto a ser menino, depois vem o tranco da desiluso
Assim voc faz o meu sopro divino, morrer de overdose de recordao

11
Bicho do Mato
Lucas Reis & Thcio Rosseri e Tio do Rancho

Tom: F#
E |8/09-7-6-6-6-4-2/4-4-2-1---1-4-7-6-4---2-4/6-6|
B |9/11-9-7-7-7-6-4/6-6-4-2-2--------------------|
G#|-------------------------------7-5-3-3-2-3/5-5|
E |-------------------------------------4--------|
B |----------------------------------------------|

E |7/09-7-6-6-6-4-6-2-------2--9-7-6-7-6-4-2-4-5-6|
B |9/11-9-7-7-7-5-7-4-4---4-----------------------|
G#|-------------------3-3------9-7-5-7-5-3-2-3-4-5|
E |-----------------------------------------------|
B |-----------------------------------------------|

F# C#7 B F#
Sou raio de sol batendo, sobre o orvalho da manh
C#7 B C#7 F#
Sou a lua se escondendo, sou o canto do acau
B C# F#
Eu sou um broto da terra, sou pedra na corredeira
C#7 F#
Riacho descendo serra, barulho de cachoeira

D#7 G#m D#7 G#m


Sou o lobo no serrado, sou silencio de um regato
C#7 F# C#7 F#
Sou o mugido da fera, eu sou um bicho do mato

Eu sou filho da me terra, eu tenho cheiro de cho


Moro na gruta da serra, junto a toca de um leo
noite a pantera negra, vem ser o meu co de guarda
Durmo sonhando que estou nos braos da minha amada

Sou o lobo no serrado, sou silencio de um regato


Sou o mugido da fera, eu sou um bicho do mato

12
Boiadeiro de Palavra
Tio Carreiro & Pardinho Lourival dos Santos, Moacyr dos Santos
e Tio Carreiro
Tom: B
E |----7-6---6-4--| |----6-6----|
B |--7-----7-----7| |5/7-7-7-5-3|
G#|7--------------| B |--------5-4| B F#7 B F#7
E |---------------| |-----------|
B |---------------| |-----------|

B F#7 B
Boiadeiro de palavra, que nasceu l no serto
F#7
No pensava em casamento, por gostar da profisso
E F#7 B
Mas ele caiu no lao, de uma rosa em boto
F#7 B
Morena cor de canela, cabelos cor de carvo
B7 E F#7 B
Desses cabelos compridos, quase esbarrava no cho
F# F#7 B
E pra encurtar a histria, era filha do patro

Boiadeiro deu um pulo, de pobre foi a nobreza


Alm da moa ser rica, dona de grande beleza
Ele disse assim pra ela, com classe e delicadeza
Esses cabelo comprido, so minha maior riqueza
Se um dia voc corta, nis separa na certeza
Alm de te abandonar, vai haver muita surpresa

Um ms depois de casado, o cabelo ela cortou


Boiadeiro de palavra, nessa hora confirmou
No salo que a esposa foi, com ela ele voltou
Mandou sentar na cadeira, e desse jeito falou
Passe a navalha no resto, do cabelo que sobrou
O barbeiro no queria, a lei do trinta mandou

Com o dedo no gatilho, pronto pra fazer fumaa


Ele virou um leo, querendo pular na caa
Quem mexeu nesse cabelo, vai corta o resto de graa
A navalha fez limpeza, na cabea da ricaa
Boiadeiro caprichoso, caprichou mais na pirraa
Fez a morena careca, dar uma volta na praa

E l na casa do sogro, ele falou sem receio


Vim devolver sua filha, pois no achei outro meio
A minha maior riqueza, eu olho e vejo no espelho
um rosto com vergonha, que a toa fica vermelho
Sou igual um puro sangue, que no deita com arreio
Prefiro morrer de p, do que viver de joelhos

13
Boiadeiro e Boiada
Valdo Reis & Pratini Joo Neguito e Valdo Reis

Tom: E
E |7-7-09-12-09/11--5-5-7-09-5/7--7-7-09-12-11-14-09-12-7-09-5-7-4
B |9-9-10-14-10/12--7-7-9-10-7/9--9-9-10-14-12-12-10-10-9-10-7-9-5
G#|---------------------------------------------------------------
E |---------------------------------------------------------------
B |---------------------------------------------------------------

E |4-5-4-2-0-----------------------------0
B |----------4-2-0-----------------------0
G#|----------------1p0-0-------0-1-3---3-0
E |----------------------2-0-2---------2-0
B |------------------------------------4-0

E B7
Poeira subindo l no espigo sinal que vem vindo uma grande boiada
E
J de tardinha e o sol se escondendo chegada a hora de outra pousada
E7 A
Um resto de luz se mistura a poeira, fazendo um lindo arco ris no cu
E B7 E
E o boiadeiro por mais esse dia agradece a deus tirando o chapu

O gado chegando da agua espraiada correndo limpinha pra matar a sede


Homens traquejados de anos de lida, no galho pendente amarrando a rede
Depois do jantar esperando o sono, o seu pensamento percorre a estrada
Levando seu corpo cheio de saudade, pra dormir nos braos da mulher amada

E na madrugada se ouve o barulho da ona pintada que vem sorrateira


E l da alturas a lua prateada ilumina o vulto da fera matreira
Tentando evitar o estouro do gado ele sai na mata arriscando a vida
O berrante toca chamando a boiada, j esta na hora de outra partida

J outro dia e a boiada segue descendo e subindo estrada de cho


O ponteiro avisa que esta chegando aumenta as batidas do seu corao
Naquela fazenda termina a jornada ele sente orgulho da misso cumprida
E volta pra casa de alma lavada a ganhar os beijos da mulher querida

14
Caboclo do Mato
Valdo Reis & Pratini Ademar Braga e Paraso

Tom: B
E |6/11-11-11-11-14-14-09-09-12-12-4-4-7-7-2|
B |7/12-12-12-12-16-16-11-11-14-14-5-5-9-9-4|
G#|-----------------------------------------|
E |-----------------------------------------|
B |-----------------------------------------|

E |2/4-4-4-4-7-4/6-6-09-6-4-2-6-2-0----|-----------------------------|
B |4/5-5-5-5-9-5/7-7-11-7-5-4-7-4-2-4-4|4-5-4-2----------------------|
G#|---------------------------------3-3|--------3-2-----------------3|
E |------------------------------------|------------4-2-0---------2--|
B |------------------------------------|------------------4-2-0-4----|

B F# B
Fiz um ranchinho de taipa, esteio bem reforado
F# B
O lugar uma beleza o rio passa ali do lado
F# B
Na frente plantei de tudo, atrs mato fechado
E B
A natureza sagrada, no desmatei quase nada
F# B
Aqui tudo preservado

Levanto de madrugada, fao a minha orao


La no mato a passarada, faz aquele barulho
Depois eu vou l pra rocha, chegar terra no feijo
De tarde eu pesco de vara, jurupoca e piapara
Por aqui tem de monto

Me orgulho de ser matuto, um produto do serto


Onde Deus e a natureza vive em plena comunho
Por aqui ningum conhece, violncia e poluio
O meu vizinho do lado um mico leo dourado
Que come na minha mo

Nas noites de lua clara, tambm fico iluminado


Eu pego minha viola, pra fazer meus ponteados
Tambm canto cururus, corta-jaca e recortado
Sou puro caboclo nato, tenho terra e tenho mato
No meu sangue misturado.

15
Caador do Invinhema
Brenno Reis & Marco Viola Dino Franco e Tio Carreiro

Tom: B
E |2-2/5-5-5-5/7-7-7-4-4/6-6-6-2-0-7|
B |4-4/7-7-7-7/9-9-9-5-5/7-7-7-4-2-7|
G#|--------------------------------7|
E |--------------------------------7|
B |--------------------------------7|

B F#
Subi o rio invinhema numa canoa de remo
E B
Fui caar no gato preto, um lugar bom que s vendo
F# B F# B
Levei a minha dois canos e meu cachorro veneno
B7 E B
Soltei no rastro de ona, o bicho saiu fervendo
F# B
Meu cachorrinho sem raa, mas pra levantar uma caa, pra ele caf pequeno

Dando sinal de levante entrou na mata fechada


De repente l no alto, ele deu uma barroada
Eu falei pro companheiro ona e das bem criadas
Minha espingarda tem bala fico firme na cilada
O senhor de coragem vai esperar na passagem no corredor da picada

O Z Pedro desses homens que no deixa pra depois


Ergueu a traia nas costas e j saiu no p dois
Dizendo cercar a ona muito apressado ele foi
A ona ele ainda disse vive s comendo boi
Sabendo dessa faanha me interessei pela banha pra temperar meu arroz

Na corrida foi embora descambou no espigo


Eu at fiz um cigarro descansei sobre o garro
De repente foi voltando rodeou pelo capo
Meu cachorro comeava o sinal de acuao
Gritei assim pro Z Pedro vou tirar o couro mais cedo da rainha do serto

Ele veio ao meu encontro pra ir no p da pintada


Meu faco de ao puro foi abrindo uma picada
De longe avistei a ona por detrs de uma ramada
Ele deu um tiro nela, ela foi nele de unhada
Pra terminar meu enredo, matei ela pro Z Pedro e o resto eu no conto nada

16
Caador
Tio Carreiro & Pardinho Tio Carreiro e Carreirinho

Tom: E
E |------------------------------------|/09-09-7-5-4-2-0--------|
B |------------------------------------|/10-10-9-7-5-4-2-4-2-0--|
G#|---------------------------7-8/10-10|-----------------3-1-0-1| E B7 E
E |/7-7-7-7-7-7-7-7-7-7-7-7-9----------|-----------------------2|
B |------------------------------------|------------------------|

B
Mandei fazer uma canoa, fundo preto e barra clara
Dois remos de guarant e um varejo de guaiara
A B E
Aia, o apoito pesa uma arroba jogo na agua o bote para

Tenhuma trela de cachorro o marenco e a caiara


A sua especialidade corre anta e capivara
Aia, sorto os cachorro no rastro vai rebentando taquara

Eu tenho uma cartucheira de qualidade bem rara


uma dois cano trunchada que at prancho ela vara
Aia, anta deita na fumaa na hora que ela dispara

A anta se apincha nagua na correnteza no para


Vai com a cabea de fora e a dois canos j despara
Aia, a bixa prancheia na agua so fisgar ela na vara

Do couro eu trano lao cabealha e rdias cara


A carne eu vendo no aougue mas pro gasto nois separa
Aia, tambm fao meus pagode nas noites de luas claras

17
Cadeira de Balano
Marcos Violeiro & Cleiton Torres Caetano Erba e Paraiso

Tom: B
E |4/6-6-7- 9-7-6-7--4/6-6-6--------|
B |5/7-7-9-10-9-7-7--5/7-7-75/7-7-7|
G#|---------------7----------5/7-7-7|
E |---------------------------------|
B |---------------------------------|

E |---------------------------------7|
B |---------------------------------7|
G#|---------------------------------7| F#7 B
E |---4-4-4------7---2-2-2/6--2-0---7|
B |/5-5-5-5-5/9-9---4-4---/7--4-2-0-0|

F#7
Na cadeira de balano, vi meu pai se balanando
E B
Eu sabia direitinho, o que ele estava pensando
F#7
De uma sala escondido, seu rosto fiquei olhando
E B F#7 B
Comparei a uma bandeira, que o tempo vai arriando
F#7 B F#7 B
Bandeira feita de lida, no velho mastro da vida, solitria tremulando

Conforme a cadeira ia, e pra traz depois voltava


Nos braos frios de madeira, os seus braos descansava
Ali um filme do tempo na minha mente passava
Senti uma gota de pranto que no meu rosto rolava
Percebi naquela hora que o mocinho de outrora na cadeira cochilava

Bandeira feita do tempo, que o prprio tempo bordo


Cada ponto de tristeza o seu rosto registro
um marco de saudade que no corao fico
De um soldado veterano que na luta aposento
Todas minhas faculdades no me ensinaram a metade do que meu pai me ensino

18
Cadeira Vazia
Joo Mulato & Douradinho Joo Mulato e Chico Pereira

Tom: E

E |--------------------------|--------------------------|
B |--------------------------|--------------------------|
G#|--------------------------|------------1----1-0---0--|
E |------0-2-3-4--0-4-2---2-0|------0-2-4----2-----0---2|
B |0-2-4----------------4----|0-2-4---------------------|

E |--------------------------|--------------------------|----------0
B |--------------------------|--------------------------|----------0
G#|------------3----3-1---1-0|--------------------------|----------0
E |------0-2-4----4-----2----|------0-2-3-4--0-4-2---2-0|4-2p0-----0
B |0-2-4---------------------|0-2-4----------------4----|------2/4-0

E
Com essa viola no peito garanto meu dia a dia

Ela inspira meus versos junto vem a melodia


F# B7
Quando eu chego no pagode tomo conta da folia
E B7 E
Quem no tem jeito pra coisa de longe que espia.

Tenho d do concorrente da maneira que ele cria


Fazendo versinhos fracos pra ouvir d alergia
Eu respeito os meus fs que so minha garantia
Eu s gravo nos meus discos modas que tem serventia.

Tem que da o breque em coisas que de ruim no tem quantia


Modas que tem duas linhas e um refro que d agonia
Agulha enrosca no disco e no explica o que queria
No final mais comprido do que a estrada rio-bahia.

Tem muitos querendo o trono de quem deixou a cantoria


Oh meu deus aqui na terra t um clima de guerra fria
Nem daqui um milho de anos no aparece outra magia
Meu dolo descansa em paz a cadeira est vazia.

19
Caipira de Fato
Joo Carreiro & Capataz Joo Carreiro

Tom: E
E |------------------------------|
B |--0-------0--------0----------|
G#|--------3--------------------8|
E |0---2-4------4-2p0-------2/7--|
B |----------------------4-------|

E A E
Que vidinha simples, que vidinha boa
B7 E E7
s eu e Deus, as nossas crianas e a patroa
A E
Que vidinha simples essa que eu levo
B7 A E B7 E
Vivendo no mato, caipira de fato, feliz e no nego

E |-------------------------------------------------------------|
B |----------------------------------7-9-7-----7-9-7-7----------|
G#|----7-8-7----7-8-7-7----------7-8-------7-8--------8-7-------|
E |7-9------7-9--------9-7-2-2/4-------------------------9-7-5-4|
B |-------------------------------------------------------------|

E B7
Cedo eu me levanto, olho pro canto, Rezo pro santo e agradeo Deus
E
Chamo a mui, fao um caf, Fao um cafun nos filhos meus
E7 A
Saio pro terreiro, enrolo um paieiro, Fumaa e cheiro deixando sinal
E B7
E a crianada me d uma mo, Com satisfao leva o lato
E E7
E feliz cantando eu vou pro curral

A boia sagrado, frango e quiabo, Acompanhado de ovo caipira, arroz e feijo


Depois do almoo, sem muito esforo, Encosto meu corpo no barraco
Brinco com os meus filhos, E vejo aquilo, no olhar um brilho de um filho meu
Riqueza de um pobre quando descobre, Famlia unida coisa nobre
Muito contente, agradeo Deus

20
Caipira de Gravata
Z Mulato & Cassiano Z Mulato

Tom: E
E |-------------------------------------------------|
B |-------------------------------------------------|
G#|0-8-8-8-7-7-7-5-5-5-3-3-3-1-1-1-0-0-0-3-3-3-1----|
E |0-9-9-9-7-7-7-5-5-5-4-4-4-2-2-2-0-0-0-4-4-4-2---2|
B |----------------------------------------------4--|
Um tanto obeso e at meio leso da vida urbana sou mais uma vtima
E |-------------------------------------------------|
B |7-7----------------------------------------------|
G#|7-7-8-8-7-7-7-5-5-5-3-3-3-1-1-0---------0-0-3-1-0|
E |----9-9-7-7-7-5-5-5-4-4-4-2-2-0-2-2-0---0-0-4-2-0|
B |--------------------------------4-4-2-0----------|
Bem representado eu pareo um fardo, todo engravatado, uma besta legitima
E |---------------------------------------------|
B |---------------------------------------------|
G#|0-0-5-5-5-3-3-1-1-1-0-0-----------0-0-0------|
E |0-0-5-5-5-4-4-2-2-2-0-0-2-2-0-----0-0-0-2-0--|
B |------------------------4-4-2-0-0-------4-2-0|
At minha mulher no sabe o que quer, tem sarapatel na massa enceflica
E |-------------------------------------------------|
B |7-7----------------------------------------------|
G#|7-7-8-8-7-7-7-5-5-5-3-3-3-1-1-0---------0-0-3-1-0|
E |----9-9-7-7-7-5-5-5-4-4-4-2-2-0-2-2-0---0-0-4-2-0|
B |--------------------------------4-4-2-0----------|
Vive inquieta fazendo dieta, pois a sua meta ficar esqulida

Vivo no sufoco o que eu ganho pouco com ares de louco em um escritrio


No me sobra grana, nem como banana pra no jogar fora o seu envoltrio
Eu no sou otrio, nem sou perdulrio, mais ou meu salrio to irrisrio
Eu nem tenho nome pra essa minha fome, ainda vem o homem com o tal compulsrio

Sem era nem beira marcando bobeira vive um funcionrio alegre simptico
Quem v o sujeito, feliz desse jeito, tem nele um suspeito de estar luntico
A final de contas uma afronta o cabea tonta bancar o chiqurrimo
No tem cabimento nem da pro sustento o seu vencimento mirrado magrrimo

Hoje me invade uma grande saudade da simplicidade da vida agrcola


Eu era feliz caava perdiz, comia raiz, era quase um selvcola
Quem vem pra cidade s por vaidade arrepende mais tarde fato verdico
Por essa manobra padece de sobra, da rasteira em cobra, e cai no ridculo

E |-----------------------------|
B |-----------------------------|
G#|7-7-8-7-7--7-5-3-1-0--5-3-1-0|
E |7-7-9-7-7--7-5-4-2-0--5-4-2-0|
B |-----------------------------|
No suporto mais eu quero voltar pra Minas Gerais

21
Caminheiro
Liu & Lu Jack

Tom: E
E |-7- 9-10-10-10- 9-7/10---14--12--10---9--7--5/7|
B |9--10-12-12-12-10-9/12--15--14--12--10--9--7-/9|
G#|-----------------------------------------------|
E |-----------------------------------------------|
B |-----------------------------------------------|

E |14-12-14-14-12-10- 9--12-10- 9-7-7-5-5---7-4--7-2/4--7-4--7-2/4-4|


B |15-14-15-15-14-12-10--14-12-10-9-9-7-7--5---5---3/5-5---5---3/5-5|
G#|-----------------------------------------------------------------|
E |-----------------------------------------------------------------|
B |-----------------------------------------------------------------|

E G#m A G#m
Caminheiro que l vai indo, pro rumo da minha terra
A G#m E E7
Por favor faa parada na casa branca da serra.

E |7-7- 9-10- 9-7-5-5/7|


B |9-9-10-12-10-9-7-7/9|
G#|--------------------|
E |--------------------|
B |--------------------|

E E7 E E7
Ali mora uma velhinha chorando um filho seu
E E7 A E
Essa velha minha me, e o seu filho sou eu.

E |--------4-5-7|
B |0-2-4-5-5-7-9|
G#|-------------|
E |-------------|
B |-------------|

A E B7 E
h! Caminheiro, Leva este recado meu!

Por favor diga pra me zelar bem do que meu, cuidar


bem do meu cavalo que o finado pai me deu, o meu
cachorro campeiro, meu galo ndio brigador, minha
velha espingarda e o violo chorador.

h! Caminheiro, Me faa este favor!

Caminheiro, diga pra me para no se preocupar, se


Deus quiser este ano eu consigo me formar, eu pegando
meu diploma vou trazer ela pra c, mas se eu for mau
nos estudos vou deixar tudo e volto pra l.

h! Caminheiro, No esquea de avisar!

22
Canoeiro
Tio Carreiro & Pardinho Z Carreiro

Tom: E
E |7-7-7-7-6-5-4-2-0-----------------------------------0|
B |------------------4-2-0-0-2/4-4-4-2-0-------0-2-0---0|
G#|------------------------0-1/3-3-3-1-0-1-1-1-0-1-0-1-0|
E |--------------------------------------2-2-2-------2-0|
B |-----------------------------------------------------|

B7
Domingo de tardezinha eu estava mesmo toa

Convidei meus companheiros pra ir pescar na lagoa

Levamos rede de lano,

E |-------------------------------|
B |--0-------0--------0-----------|
G#|------------------------------3|
E |--------2-------------------2--|
B |0---2-4------4-2-4----2-0-4----|
E
ai, ai,... fomos pescar de canoa!

Eu levei os meus preparos pra d uma pescada boa


Samos cortando gua na minha velha canoa
A gara avistei de longe , ai, ai, ... chegar perto ela voa.

Fui descendo rio a baixo, remando minha canoa


Eu entrei numa vazante, fui sair noutra lagoa
o remanso do Rio Pardo, ai, Ai... onde o pintado amoa

Pra pegar peixe dos bons, d trabalho a gente "soa"


Eu jogo timb na gua com isso o peixe atordoa
Jogo a rede e dou um grito,(ii) ai, ai,..os dourados amontoa.

O rio estava enchendo muito tava encobrindo a canoa


Acompanhei a mar, e encostei minha canoa
Cada remada que eu dava ,ai, ai,...dava um balano na proa.

23
Cantando Para Meu Povo
Marcos Violeiro & Cleiton Torres Nauwy

Tom: E
E |----------------------------|
B |-0-----0--0--0-----0--0--0--|
G#|----------------6h7-5-3--1|
E |--6h7-5--4--2---------------|
B |0---------------------------|

E |--------------------------------------------0-2-0-2-4-4/5|
B |----------------------------0-2-0-2-3-4-3-4--------------|
G#|--------------------0-1-0-1------------------------------|
E |------------0-2-0-2--------------------------------------|
B |0-2-3-4-3-4----------------------------------------------|

E |/11- 9-7-[12]| E |----------------|


B |/12-10-9-[12]| B |----------------|
G#|---------[12]| ou G#|----------------|
E |---------[12]| E |7p0-5p0-4p0-2/12|
B |-------------| B |----------------|

E B7
Me chamaram de caipira aceitei, falaram mau da viola zanguei
A B7
Lembranas do meu passado guardei, pediram pra que eu mudasse mudei
F# G B7
Os fs da viola me apoia j sei, cantando para meu povo cheguei

O comeo foi difcil ralei, a inveja me deu rasteira tombei


Deus teve pena de mim levantei, valeu a volta por cima que eu dei
Os fs da viola me apoia j sei, cantando para meu povo cheguei

Sementes que do bons frutos plantei, a sorte de quem procura achei


Perante as dificuldades pensei, os obstculos da vida passei
Os fs da viola me apoia j sei, cantando para meu povo cheguei

No palco a terra treme notei, mostrando o meu talento agradei


Estilo com muita classe criei, tristeza do meu dirio risquei
Os fs da viola me apoia j sei, cantando para meu povo cheguei

24
Capiau
Joo Mulato & Pardinho Tio do Carro e Jos Caetano Erba

Tom: A
e|----3-2-------------------|----3-2-------------------|
B|3/5-----5-3--------3-----3|3/5-----5-3--------3------|
G|-------------4-2-0---5-2--|-------------4-2-0---5-2-0|
D|--------------------------|--------------------------|
A|--------------------------|--------------------------|
E|--------------------------|--------------------------|

e|-------------------------3|
B|----3--3---------------3--|
G|4-5------5-4-5-4-2-0-4----|
D|--------------------------|
A|--------------------------|
E|--------------------------|

A D E A
A parede fumaada l por dentro do rancho
D G A D A7 D
Carne de bicho mateiro no mormao do fogo
E7 A
Na taipa toco de brasa, l na trempe um panelo
D E7 A
O tempero da comida cheira em todo o casaro
G E7 A
O caboclo est contente, l no fundo serto

E7 A D
A choupana de barrote, armao feita de pau
E7 A
o castelo do caipira, morada do Capiau

O bicho mateiro desce da capoeira fechada


Gavio voa de fasto, preparando a emboscada
Ona ruge na montanha, o boi berra na invernada
Tem capivara criando l no meio da porcada
Capiau l tem de tudo, nos aqui no temos nada

A paca vem no carreiro, o Capiau ta na mira


no baque da Laporte, a caa deita e revira
Adora uma caada, mas no despensa um catira
Ele s anda descalo, marra a cala com embira
Ser doutor muito fcil, o difcil ser caipira

25
Carreiro Vitorioso
Marcos Violeiro & Cleiton Torres J. Wilson e Adalberto

Tom: B
E |14-12-14--11-09-11------|-12-11-12--09-7-09-7-6--------|
B |16-12-16--12-11-12------|-14-12-14--11-9-11-9-7--------|
G#|------------------------|-----------------------8-7/8/7|
E |------------------------|------------------------------|
B |-------------------2-4-5|------------------------------|

E |--------6-7-9-11-11/12-|12-11-9----------------------------|
B |----7-9----------------|--------12-11-12-11-9----------9-12|
G#|7-8--------------------|----------------------10-8---10----|
E |-----------------------|---------------------------11------|
B |-----------------------|-----------------------------------|

B F# B
No bairro onde moro tem uma manso lindo casaro precisam de ver
F# E F# B
A sua fachada lembra um palcio com grades de ao e vidro fume
F# B
Erguida no fundo de um grande terreno e no pequeno jardim da frente
B7 E F# B
Plantaram grama, grama boiadeira, no meio a paineira cresceu imponente

E |----------|
B |---------4|
G#|---------3|
E |---6-4-0-2|
B |/7---5-2 4|

Tudo aquilo ali era to comum no tinha nenhum fato interessante


Aquela paineira linda e majestosa, pintava de rosa a grama verdejante
Um carro de boi curiosamente enfeitava a frente daquela manso
Um homem j velho de cabelos brancos sentado num banco chamou-me ateno

Perguntei ao velho por que que foi que o carro de boi foi parar ali
Ele ento me disse ento me disse eu j fui carreiro, nos tempos primeiros bem longe daqui
Com esse carro e a minha boiada, cortava as estradas daqueles sertes
Fui desbravador, grande pioneiro eu j fui carreiro de muitos patres

Os anos passaram deixaram saudades, minha mocidade ficou to distante


Os meus braos foram fortes como ao, e hoje no fao o que j fiz antes
Hoje no aguento erguer um cambo essas minhas mos no tem mais destreza
E ao ver meu carro num canto esquecido, fico aborrecido com tantas tristezas

Quando me mudei aqui pra cidade, a grande saudade quase me matava


Do carro de boi, da minha boiada, naquelas estradas quando ele cantava
Se eu no ouo mais o seu cantar dolente, nas tardes mais quentes l do meu serto
Eu trouxe meu carro pra perto de mim, aqui por jardim da minha manso

26
Carteiro
Tio Carreiro & Pardinho Tio Carreiro, Sebastio Victor e
Carreirinho
Tom: E
E |4/6-6-6-6-6/11-11-11-11-11----------
B |5/7-7-7-7-7/12-12-12-12-12----------
G#|---------------------------1-1-1-1/3 B7 E
E |---------------------------2-2-2-2/4
B |------------------------------------

E E7 A B7 E
Eu estava no porto, quando o carteiro passou
E E7 A B7 E
Tirou da correspondncia, uma carta e me entregou
F# B7
Abri a carta pra ler, os ares diferenciou
A E B7 E F# B7 E
Quando eu li o cabealho, os meus olhos se orvalhou ai, lagrimas no cho pingou

Dois amigos que passavam, me viu chorando e parou


O que tinha acontecido, um deles me perguntou
A causa dessa tristeza, meu amor me abandonou
Amigos fiquem sabendo, primeira vez por amor ai, que este caboclo chorou

O amor que eu tinha nela, em dio se transformou


Por ser uma mulher falsa, no cumpriu o que jurou
No quero saber onde anda, nem ela onde eu estou
Vai ser como o sol e a lua, quando um sai outro ja entro ai, no quero ter mais amor

Das mulher que eu conheci, s uma que confirmou


Um amor sincero e puro, que nunca me traioou
Em minhas horas amargas o quanto me confortou
Primeiros passos da vida, foi ela quem me ensinou ai, minha me que me criou

27
Casinha Verde
Joo Carreiro & Capataz Joo Carreiro

Tom: B
E |-----------------------------------------------------|
B |-----------------------------------------------------|
G#|--------------/8-8-8-8-7-7---------------------------|
E |2-2/7-7-7-6-6-/9-9-9-9-7-7-7-6-----6-4-----4-2-------|
B |4-4/9-9-9-7-7------------------9-7-----7-5------5-4~~|

E |-------------2/4-4-4-4-2-2----2-4/5-4---4-5/7-6-6-7/12-11----------|
B |-----2/4-2-2-3/5-5-5-5-4-4-4---------5---------7----------10-9-8-7~|
G#|-3-5---------------------------------------------------------------|
E |2------------------------------------------------------------------|
B |-------------------------------------------------------------------|

B F#7
Tem muita gente que olha e no v
B
Pensa que a vida so aparencia
G#m F#7
Onde eu moro casinha modesta
B
to pequena minha residencia
E
Tem muita gente que de mim tem d
B E
Imaginando que eu vivo sofrendo
F#7 B
Meu companheiro engano seu
F#7 B
Onde tem deus l que eu to vivendo

F#7 B F#7
Casinha verde , pequenininha cheia de amor
E B F#7
Meu mundo uma beleza e o enfeite que mais
B E F#7 B
Me encanta, so as crianas e a minha Tereza

Sou jardineiro e com muito orgulho eu desempenho


Minha profisso, e vira e mexe a vizinhana chama
E eu atendo de bom corao, tudo que eu fao
A Tereza t junto, ela feliz e eu demais com ela
Todo domingo pra agradeer pode chover
Que ns ta na capela.

28
Comitiva Pantaneira
Brenno Reis & Marco Viola Donizete Santos

Tom: G
E |2-3-4/5-5-3-5-7/ 8- 8-7- 8- 9/10-10|
B |3-5-6/7-7-5-7-8/10-10-8-10-11/12-12|
G#|-----------------------------------|
E |-----------------------------------|
B |-----------------------------------|

E |14-14-14-14-12-12-10-10- 8- 8-5-5/7-7-5|
B |15-15-15-15-13-13-12-12-10-10-7-7/8-8-7|
G#|---------------------------------------|
E |---------------------------------------|
B |---------------------------------------|

G D7 C D7 G
A serra de Maracaju conhece o lamento de boiada
D7 C D7 D
Boiadas que vem do pantanal, subindo a serra ali faz uma parada
A D7 A D7
No pantanal o casco do boi mole, aqui em cima o gado sofre sem igual
C G D7 G
Se acabar as comitivas pantaneiras impossvel tirar boi do pantanal

Algum falou um certo dia, e fez at comparao


Por onde for em meu cavalo, ele iria tambm com seu caminho
Eu no concordo pois conheo a velha lida, sou estradeiro e tenho outra opinio
O caminho vai por onde tem estrada, e o meu cavalo vai por onde serto

Adeus boiada pantaneira, daqui pra frente voc vai de caminho


A comitiva vai voltar ao pantanal, buscar boiada para outra embarcao
Em meu ouvido parece que estou ouvindo, mugir do gado num lamento sem igual
Em cada berro de um boi significa, um triste adeus para sempre ao pantanal

A serra de Maracaju conhece um lamento de boiada

29
Desabafando
Z Mulato & Cassiano Z Mulato

Tom: B
E |--------------------------------2|
B |--------------------------------2|
G#|/7-7-7-5-5-3-3/5-3-3-3-2-2-2-2--2|
E |/7-7-7-6-6-4-4/6-4-4-4-2-2-2-2--2|
B |---------------------------------|
Pode entrar minha paixo eu j estava te esperando
E |-------------------------------2|
B |-------------------------------2|
G#|--0-0-0-0-0-3-3-3-3-2----------2|
E |--0-0-0-0-0-4-4-4-4-2-2-2-0-0--2|
B |0---------------------4-4-2-2---|
No espanto das curricacas eu precenti voc chegando
E |------------------------------|
B |------------------------------|
G#|/5-5-5-3-3-2-2-0-3-3-3-2-2-0-0|
E |/6-6-6-4-4-2-2-0-4-4-4-2-2-0-0|
B |------------------------------|
Eu tinha plena certeza que um dia ia volta
E |----------------------------7|
B |----------------------------7|
G#|2-2-2-----------------0-----7|
E |2-2-2-2-2-0-----------0-0---7|
B |------4-4-2-0-0-0-2-4---2-0--|
Porque o mundo l fora cruel de amarga
E |--------------------------------------------------7|
B |-------------7-7-7-7-------------2----------------7|
G#|/7-7-7-7-7-7-7-7-7-7-8-8-7-7-5-5-2--2-2-----2-2---7|
E |/7-7-7-7-7-7---------9-9-7-7-6-6-2--2-2-2-2-2-2-2-7|
B |----------------------------------------4-4-----4--|
Por sua tola aventura eu passei tanta amargura, mas posso lhe perdoa

Hoje prefere Uisque infelizmente eu no tenho


Mas preparei pra nois dois uma pinguinha de engenho
A vida la da cidade conseguiu lhe transformar
Nois temos pouco em comum mas da para conversar
So coisas do corao no pra te da sermo so quero desabafar

Depois que voc foi em bora deis lguas na redondeza


Ningum mais fez uma festa me respeitando a tristeza
Aqui voc foi rainha com tudo que h de direito
Fui seu rei apaixonado na vida e tambm no leito
Trocando tudo por nada voc deixou encravada essa magoa no meu peito

Hoje voc transformou-se no que eu menos queria


Uma mulher insensvel talhada na pedra fria
Ainda sente amor por mim mas tem medo da verdade
Do que me fez padecer no lhe desejo a metade
At nem sei porque veio pois o inferno esta cheio dos arrependido tarde

30
Desatino
Ronaldo Viola & Praiano Ronaldo Viola e Z Bill

Tom: E
E |7-7-7-5-5-5-4-4-4-4/5-5-4--7-7-7-5-5-5-4-4-4-4/5-5-4-0|
B |9-9-9-7-7-7-5-5-5-5/7-7-5--9-9-9-7-7-7-5-5-5-5/7-7-5-0|
G#|-----------------------------------------------------0|
E |-----------------------------------------------------0|
B |-----------------------------------------------------0|

E AE AE
Em um quarto de hotel, loucamente apaixonado,
B7
Eu estou desesperado feito uma estrela sem o cu..
F#m B7
Sei que j madrugada e meu sono que no vem..
E (B7)
Ser que me convm sair assim cortando estrada..
E AE A E
Conversando com a solido pra encontrar um certo algum,
E7 A
ser que me convm ou tudo acabe dando em nada..
B7 E B7
se ontem eu por l passei.. saudade me apertou mas no parei,
E B7
minhas mos grudaram firmes no volante e o carro acelerei.

E B7
Eu quis fugir do destino, fugir da realidade,
A B7 E B7
e sufocando a saudade aquela cidade fui deixando pra trs,
E B7
que esse meu desatino uma mulher envolvente,

A B7 E
amor diferente, olhar de serpente o doce veneno que me satisfaz..

E |---------------------------------------------|
B |----------0-0-0h1-0-0---0-0-0-0-2-4-4-4/5-4-4|
G#|0-0-0-0-1-0-0-0h2-0-0---0-0-0-0-1-3-3-3/5-3-3|
E |0-0-0-0-2------------------------------------|
B |---------------------------------------------|

E | ----------------------------------------0|
B |4-4-4-4-5-7-7/9-7-7-5-5-4-4---0h2-0------0|
G#|3-3-3-3-5-7-7/8-7-7-5-5-3-3-0-0h1-0-1----0|
E | ---------------------------0-------2----0|
B |------------------------------------------|

31
Destino de Violeiro
Fernando & Osmair Z Mulato

Tom: B
E |/11-11-11-11-11- 9-12-12- 9-7-6- 9-6-4-2|
B |/12-12-12-12-12-11-14-14-11-9-7-11-7-5-4|
G#|----------------------------------------|
E |----------------------------------------|
B |----------------------------------------|

E |----7-6-----9-7-|
B |7-9-----7-9-----|
G#|----------------|
E |----------------|
B |----------------|

B F# B
Minha inclinao surgiu eu ainda era menino
F# B
Cantava moda de viola e a voz parecia um sino
F# B
Moda de pouca importncia eu transformava num hino
F# B
Foi assim que me tornei um cantador genuno
F# F#
Hoje canto pro povo de alma e corao
F# B
Essa minha profisso um presente divino

O caboclo quando nasce j vem com o seu destino


Basta seguir com firmeza sem cometer desatino
O que vem por natureza no preciso de ensino
Quem bom j nasce feito mas mesmo assim eu previno
A carreira deliciosa quase sempre espinhosa
Quem sonha com mar de rosas dana sem ser bailarino

Na viola bem afinada a muita gente eu fascino


Esse meu lado verstil j vem desde pequenino
Na arte da cantoria modstia parte eu sou fino
Quem deseja meu fracasso pode crer eu sou ladino
Nas disputas que me envolvo sempre mostro algo novo
Ranca suspiro do povo a viola que eu afino

Em toda moda que eu fao pra perfeio eu me inclino


No quebro rimas bonitas pois a poesia eu domino
Tenho um parceiro de ouro e o dueto cristalino
Tendo os fs por testemunha dou f escrevo e assino
Cantando modo raiz quem me ouve pede bis
Mais uma vez fui feliz nessa moda que termino

32
Dom Brasileiro
Jads & Jadson Jadson

Tom: A
E |/12-12-12-12-10- 9-2-1-1-1-2-1--|
B |/14-14-14-14-12-10-3-3-3-3-5-3-5|
G#|-------------------------------5|
E |--------------------------------|
B |--------------------------------|

E |/12-12-12-12-10- 9-2-/14-14-14-14-12-10- 9-7-5-5/7-7|


B |/14-14-14-14-12-10-3-/15-15-15-15-14-12-10-9-7-7/9-9|
G#|----------------------------------------------------|
E |----------------------------------------------------|
B |----------------------------------------------------|

A
Meus irmos violeiros escute a minha cano
E7
Que vem do fundo do meu corao
D A
No vamos deixar morrer a nossa cano
B E7
As modas de viola, quanta tradio
D A
Uma grande luta de uma gerao
E7 A
Que agora nossa, continua a misso

Essa viola caipira que muito me faz tocar


Tocar meu corao e tambm fez chorar
Ainda me lembro a primeira vez
Que ouvi seu ponteado eu me apaixonei
Gemendo apaixonada com o violeiro
Quando tem um amor que amargura o peito

Afine essa viola, nova gerao


Gerao de violeiros, orgulho no serto
Muitos dos nossos mestres
Agora so lembranas
Mas a viola no morre,
Permanece a esperana
Enquanto existir viola e violeiro
Vamos levar adiante esse dom brasileiro

33
Pra Caba
Joo Carreiro & Capataz Joo Carreiro

Tom: E
Introduo: E B7
A E
pra caba com o pequi do Gois, pra roer todo o queijo de Minas
B7 E E7
pra beber todas pinga do Brasil, a paixo que eu sinto nessa menina
A E
pra caba com o pequi do Gois, pra roer todo o queijo de Minas
B7
pra beber todas pinga do Brasil,
E |------------------------------|
B |------------------------------|
G#|-------------7-----5----3----1|
E |/9-9-7~------7-----5----4----2|
B |------------------------------|
a paixo que eu sinto nessa menina

E |----------------------------------------------------|
B |----------------------------------------------------|
G#|0-1-2-3-3/8-8-7-5-5-5/8-7-5~--0-1-2-2/3-3-3/7-7-5-3~|
E |0-2-3-4-4/9-9-7-5-5-5/9-7-5~--0-2-3-3/4-4-3/7-7-5-4~|
B |----------------------------------------------------|

Abafado
|--------------------------|

E |-------------------------------------------------|
B |-------------------------------------------------|
G#|------------1------1-------------7-5-3-1--0-1-2-3|
E |------0-1-2--4-2-2--4-2-2--/9-9-7-5-4-2-0-0-2-3-4|
B |0-2-4--------------------------------------------|

A E
pra caba com o pequi do Gois, pra roer todo o queijo de Minas
B7 E
pra beber todas pinga do Brasil, a paixo que eu sinto nessa menina

E A ( A A# ) B7
Essa paixo quente, parece at Cuiab
E
T faceiro igual criana que t conhecendo o mar
E ( A A# ) B7
T feliz de mais da conta, agora o peito desconta as dores que j sofreu
E
fogo na gasolina, o amor dessa menina em mim bateu e valeu

34
Era Uma Boiada
Marcos Violeiro & Cleiton Torres Marcos Violeiro e J. Wilson

Tom: B
E |----2-----7---6---9---7-11-9-7-9-11|--------------------------|
B |2h4---4/9---7----------------------|--------------------------|
G#|----------------8---7---10-8-7-8-10|----3-2----3-2---3-2-0----|
E |-----------------------------------|2-4------4-----4-------3-2|
B |-----------------------------------|--------------------------|

E |----2-----7---6---9---7-11-9-7-9-11|----------------------------2-4-2---2--0|
B |2h4---4/9---7----------------------|-------------------------4----------2--4|
G#|----------------8---7---10-8-7-8-10|---------------------2-3------------2--3|
E |-----------------------------------|------0---0-1-2--2-4----------------2--2|
B |-----------------------------------|0-2-4---4---------------------------2--4|

B F#7 B
A muito tempo eu no vejo uma boiada, a passo lento nas estradas do serto
E F#7 B
A muito tempo no escuto em meus ouvidos, o repicar de um berrante no estrado
F#7 B
No ouo mais o grito da peonada, em desespero num estouro de boiada
E F#7 B
A muito tempo deixei de ser boiadeiro, por que a idade me tirou l das estradas

F#7 B
Era uma boiada, pisando firme na areia do estrado
F#7 B
Hoje saudade, que vai pisando no meu pobre corao

Meu velho lao t guardado num cantinho, minha guaiaca no mais meu cinturo
O meu chapu pendurei atrs da porta, o meu arreito t jogado no poro
Mas no meu peito eu guardei essa saudade, daquele tempo de peo de boiadeiro
Que fui feliz montado em um cavalo, tocando boi por este cho brasileiro

Olho no espelho meu passado refletido, vejo o vermelho da poeira em meu rosto
Tambm me vejo de chapu de aba larga, e o meu leno amarrado no meu rosto
Ai ento sinto as lagrimas caindo chora saudade que em meu peito doi de mais
No mesmo espelho vejo passar minha vida, vida de peo que no volta nunca mais

35
Estrelinha Branca
Z Mulato & Cassiano Z Mulato

Tom: A
E |14-12-10--9-5-5-4-5-6-7--9------9/12-10-9-7---------9|
B |15-14-12-10-7-7-6-7-8-9-10----10------------7-9/10-10|
G#|-----------------------------8-----------------------|
E |----------------------------9------------------------|
B |-----------------------------------------------------|

A E7
Estrelinha branca que guia meus passos, nos seus abraos que eu encontro a paz
A E7
Todo meu tormento, voa pro espao, num simples carinho que voc me faz
A E7 D
Basta um gesto seu pra minha agonia, virar poesia e como se diz
A E7 A
Que um pobre poeta de alma carente no precisa muito para ser feliz

Um sorriso seu, um simples sorriso, faz o que preciso no meu corao


Se alguma magoa ainda me atormenta, ele me acalenta e enche de iluso
Deus a colocou, no mesmo caminho, que eu devia passar ele sabe porque
Eu no poderia caminhar sozinho ento pra me guiar designou voc

B E7 B E7
Estrelinha branca luz do meu caminho, que tem a virtude de me levantar
A B E7
Se as vezes caio ou encontro espinhos, com a sua fora eu posso contar
A A7 D
Estrelinha branca, que desde aurora brilha toda hora at o final do dia
A E7 A
Constante sorriso, corao gigante, balsamo calmante pra minha agonia

E |-9-7-5-4-5-7--9|
B |10-9-7-5-7-9-10|
G#|---------------|
E |---------------|
B |---------------|

36
Felicidade
Tio Carreiro & Pardinho Raul Torres

Tom: A
E |--------------------------------------|
B |7-------------------------------------|
G#|-7-----------5-7/8-7-3/5-5-5-3--------|
E |--7-2-4-4/6-7------------------4-2p0--|
B |-------------------------------------4|

E |----------------------------------
B |----------------------------------
G#|-/7----------0-/3-3-3-2-/8-8-5-5/7
E |----7-4-2--2-0-/4-4-4-2-/9-9-6-6/7
B |-----------4----------------------

E |6h7---------
B |---6h7------
G#|------6h7---
E |---------6h7
B |------------

A E A F#7
Faz muito tempo, ainda me lembro, foi numa festa l no Jaragu
E A F# A
Foi mais ou menos, no fim de setembro, eu nesses versos quero relembrar

Felicidade oh felicidade, to pouco tempo que voc durou


Eu vivo agora, curtindo a saudade, veio a tristeza e comigo ficou

No tenho mais, aquela companheira que tantas vezes comigo sofreu


Felicidade foi to passageira, toda alegria no meu peito morreu

Felicidade oh felicidade volte de novo em meu peito viver


Se ela voltasse oh felicidade, eu lhe agradeo e que bom que vai ser

Riffs

E |--------- E |--------0
B |--------- B |--------0
G#|0-1-2/3-3 G#|--------0
E |0-2-3/4-4 E |--------0
B |--------- B |0-2-4-0

E |-------------------2 E |6h7---------
B |-------------------2 B |---6h7------
G#|8/10-10-8-7--5--3--2 G#|------6h7---
E |9/11-11-9-7--6--4--2 E |---------6h7
B |-------------------2 B |----------

37
Figura do Velho
Fernando & Osmair Tio do Carro e Jos Caetano Erba

Tom: B
E |----------9--9-12-11--9-7---7--7-7-6---6--------7|
B |--7-8/10-10-10-10-10-10-9-9-9--9-9-7-7-7-9----9-7|
G#|-7------------------------8----------7----8-8-8-7|
E |7-------------------------------------------9---7|
B |-------------------------------------------------|

E |----------9--9-12-11--9-7---7--6-6-6-----------------7|
B |--7-8/10-10-10-10-10-10-9-9-9--7-7-7-9-------7-------7|
G#|-7------------------------8----------8-8-5---7--8--7-7|
E |7--------------------------------------9-6-6---9--7--7|
B |-------------------------------------------7----------|

B C# F#7 B
Tombamos a terra pra fazer a roa, um rancho e a palhoa erguemos por l
F# C# F#
Depois de algum tempo um golpe doido, meu velho querido deus veio buscar
B F#7 B
Destino afiado machado cortante, bateu no gigante jogando no cho
B7 E B F#7 B
Bateu bem no cerne de baixo da casca tirando uma lasca do meu corao

As marcas ficaram no esteio e no rancho, na viga e nos ganchos no teto e no cho


A vara de pesca em cima amarrada no cho enxada, machado enxado
Tem marcas de encho, na velha porteira no coxo e cocheira no p do mouro
Quis fazer a pea que no ficou pronta, s fez uma ponta da mo de pilo

As marcas de fato esto l a roa com essas mo grossa deu duro e luto
Em cada mouro que cerca a divisa, dizer no precisa quem foi que fincou
E l na tirada rasgada do solo, o velho monjolo foi ele quem pois
At o espantalho vermelho e rasgado deixou l fincado na roa de arroz

E hoje correndo a divisa da idade, me bate a saudade onde nos morava


Ainda eu sinto o gostoso cheiro, daquele palheiro que o velho pitava
Daquela fumaa subindo do pito, seu rosto bonito pra mim no morreu
No cu eu revejo essa linda figura, na terra moldura do velho sou eu

38
Flor do Ip
Zilo & Zalo Djalma, Andr e Andrade

Tom: B
E |------------------|---------------|
B |------------------|---------------|
G#|7-5-3-2-2/7-7-7-7-|7-5-3-2-5-3-3/5|
E |7-6-4-2-2/7-7-7-7-|7-6-4-2-6-4-4/6|
B |------------------|---------------|
Eu nasci no ms de agosto, o ms da flor do ip

E |------------------|----------------|
B |------------------|----------------|
G#|3-3-2-2-3-0-0-0-0-|2-2-3-2---------|
E |4-4-2-2-4-0-0-0-0-|2-2-4-2-2-0-----|
B |------------------|--------4-2-2/4~|
Os campos ficam floridos, que d gosto a gente v

E |----------------|-------------|
B |----------------|-------------|
G#|--------2-2-2-2-|3-2-0---0-0-0|
E |--------2-2-2-2-|4-2-0-2-0-0-0|
B |0-0-2-4---------|------4------|
Mais para mim tristeza no posso me compreender

E |----------------|----------------|-----|
B |----------------|----------------|-----|
G#|0---------------|2-2-3-2-0-0-----|-----|
E |0-2-0-----0-2-0-|2-2-4-2-0-0-2---|2-0--|
B |--4-2-0-0-2-4-2-|------------4-0-|4-2-0|
Eu nasci no ms de agosto, mais foi s para sofrer ai ai ai

Da minha infncia querida, eu no consigo esquecer


Na porta da minha escola, um lindo p de ip
Na hora do meu recreio, ali eu me descansava
Parece que a flor dizia, que a minha infncia terminava ai ai ai

Logo veio a mocidade, pequenos dias risonhos


Passou na velocidade, do terminar de um sonho
Transformando o meu sorriso, num triste e amargo pranto
Que chora ao ver no presente, esses meus cabelos brancos ai ai ai

Agora velho e cansado, me resta pouca lembrana


Olho no campo da vida, pequenas rosas balanam
No ms de agosto eu vejo, os lindos ps de ip
As flores nascem de novo, s eu no volto a nascer ai ai ai

39
Francisco de Assis
Tio do Carro & Pagodinho Jos Caetano Erba e Tio do Carro

Tom: A
E |/12-9-----5-4-5-6-7h9p7---/10-7-----4---7--9h10p9|
B |-----10-7---5-7-8-9-------------9-5---5---10-----|
G#|-------------------------------------------------|
E |-------------------------------------------------|
B |-------------------------------------------------|

E |/12-9----9---7--10-9-7-5--------------------5-------|
B |------10---8-----8-8-8-7-------------------5-5--/7-5|
G#|--------------------------5-6-7-8---------5-----/6-5|
E |-------------------------------------4-4/5----------|
B |----------------------------------/5----------------|

A E7
Sou eu que atravesso pisando mansinho, na areia branquinha de um velho estrado
Bm E D E A
Com as vestes compridas e usando sandlias, na minha cintura eu levo um cordo
E A
No ombro eu carrego um manso pombinho, que tem a clareza branquinha de um giz
D A E7 A
Eu sou um andante, viageiro do mundo, eu sou simplesmente Francisco de Assis

E7 A E7 A
Sou eu que visito o co machucado, deitado num canto uivando de dor
D A E7 A
Invs de remdios pro seu ferimento, apenas derramo um pouquinho de amor

s vezes me sento ao p do barranco, quem passa na estrada nem olha pra mim
Estou no silencio ali conversando, com um louva deus na flor do capim
Depois ou retorno pras as guas da fonte, e as aves canoras lhe vem se banhar
Estou novamente voando no espao, e o vento me leva pras guas do mar

40
Gente da Minha Terra
Belmonte & Amara Goi e Belmonte

Tom: E
E |4-4/7-5-4-4-4-2-4-5h7p5---5-5/9--7-5-5-5-4-5-7h9p7|
B |5-5/9-7-5-5-5-4-5-7-------7-7/10-9-7-7-7-5-7-9----|
G#|--------------------------------------------------|
E |--------------------------------------------------|
B |--------------------------------------------------|

E |7-7/10--9-7-7-7-5-7--9h10p9----9--9/12-12-11-11--9-7-7-5-4|
B |9-9/12-10-9-9-9-7-9-10--------10-10/14-14-12-12-10-9-9-7-5|
G#|----------------------------------------------------------|
E |----------------------------------------------------------|
B |----------------------------------------------------------|

E B7 E
Fiz tanta homenagem ao interior e ao trabalhador de alma gentil
C#m F#m B7 E
Os versos que fiz os colegas gravaram e se espalharam por esse Brasil
B7 E
E a saudade da minha terra tornou-se um hino na voz do meu povo
E7 A F# B7
Porque quem deixou sua terra querida, embora alcanando sucesso na vida
E
No h quem no queira revela de novo

E |4-4/7-5-4-4-4-5-7--9h10p9--9--9/12-12-11-11--9-7-7-5-4|
B |5-5/9-7-5-5-5-7-9-10------10-10/14-14-12-12-10-9-9-7-5|
G#|------------------------------------------------------|
E |------------------------------------------------------|
B |------------------------------------------------------|

Quem que esquece o campo, a cascata, o lago a mata a pesca de anzol


O gado pastando o capim do atalho, molhado do orvalho brilhando ao sol
E a gentiliza daquele povo que a todos dispensam o mesmo calor
Eu gosto da vida tambm da cidade, e sei que existe a felicidade
Mas deve ser filha do interior

Nos bailes da roa eu sempre cantava algum que me amava chorava por mim
Depois eu danava no grande terreiro, sentindo o cheiro da flor de jasmim
E at hoje ainda sinto, aquele perfume pairando no ar
Me faz reviver a feliz mocidade, o perfume da doce saudade
Que nada no mundo consegue apagar

quase um mistrio a vida da gente, a luta da mente quase que v


Aquilo em que hoje se v naufragada, talvez ser amada em nosso amanha
E a saudade da minha terra est em minha em todo meu ser
Nos palcos da vida eu vou trabalhando, mas quando sentir a cortina fechando
na minha terra que eu quero morrer

41
Grito de Liberdade
Goiano & Paranaense Goiano e Donizete Santos

Tom: E
E |----------------------|--------------|------7-5-4----|
B |----------------------|--------------|/7-4--------7-5|
G#|-----8---8-7-/10-7---8|---3-5-3-5/7-3|---------------|
E |---7---9-----------7--|/4------------|---------------|
B |/9--------------------|--------------|---------------|

E B7 E
Meu Brasil virou do avesso e o povo no tem liberdade
B7
Quanta gente est sofrendo essa tal desigualdade
F# B7
Meia dzia come gordo e o resto passa vontade

Este salario da fome, sufoca a humanidade


E B7 E
Neste planeta que gira, quem vai plantando mentiras no pode colher verdade

Novas leis, novo governo, mas tudo a mesma paoca


Trabalhador a cana que segue pra engenhoca
No anzol dos poderosos nunca vai faltar minhoca
O aposentado dana, conforme o jeito que toca
E nesta luta to feia panela do pobre cheia quando rebenta pipoca

Existi uma verdade que agora tem que ser dita


Em promessas de melhoras quase ningum acredita
Uma chuva de vergonha nossa terra necessita
Oh meu deus tenha piedade, por que a coisa aqui t frita
A sua gente cansada de tanto levar pancada por justia agora grita

E B7 E
Quem traiu minha confiana, confesso que tenho magoa
B7 A B7 E
Quarenta por cento leite, sessenta por cento gua

42
Histria da Minha Saudade
Z Antonio & Divaney Divaney

Tom: E
E |------------------------------------|
B |0-5-0-5-4-7-4-2-0-5-2-0---4-0-------|
G#|0-5-0-5-3-7-3-1-0-5-1-0-1-3-0-1-1/3-|
E |------------------------2-----2-2/4-|
B |------------------------------------|

E |------------------------------------0|
B |------------------------------------0|
G#|3/8-8-8-8-7-11-11-5-3-8-8-3-1-7-3-1-0|
E |4/9-9-9-9-7-11-11-5-4-9-9-4-2-7-4-2-0|
B |-------------------------------------|

E B7
Minha infncia meu Deus que saudade, da minha cidade que era quase serto
A E
De quando se ouvia berrante tocando, e a tropa chegando pra festa de peo
E7 A
No largo da igreja eu jogava bola, o amor na viola comeava a nascer
E B7 E
Viajando em canes e nos meus ponteados se volto ao passado eu no queria crescer

B7 E B7 A E
Avenida de asfalto que j foi boiadeira que saudade do tempo que me via a brincar
B7 E B7 E
Em meio a carroa, boiada e poeira vi abrir a porteira e o progresso chegar
A E B7 E
Asfalto chegando eu indo embora, perdendo a historia que vi comear
A E B7 E
To morando fora, juntando uns cobre mas quando for nobre prometo voltar

Meu jeito caipira me serviu pro futuro, hoje to maduro e aprendendo a viver
No tenho tudo s o suficiente e no meu presente s falta voc
Eu era o cravo voc era a rosa, poesia formosa que virou cano
De olhos molhados feliz abrao e te tenho nos braos da imaginao

43
Homem at de Baixo Dgua
Tio Carreiro & Paraso Lourival dos Santos, Tio Carreiro e
Arlindo Rosas
Tom: E
E |/11-11-11-12/| |4/7-7-7-5/9~~|
B |/12-12-12----| |5/9-9-9-7----|
G#|-------------| E |-------------| E B7 E
E |-------------| |-------------|
B |-------------| |-------------|

E B7 E
Um caboclinho de sangue nas veias vergonha na cara, bastante opinio
B7 E
A filha mais nova de um fazendeiro ele namorava com boa inteno
B7 E B7
O velho cismou de impedir o romance num gesto severo chamou ateno
A E B7 E
Voc no passa de um p-rapado levar minha filha no dou permisso
F# B7 E
Minha filha nasceu no conforto, voc no tem onde cair morto nunca passa de um pobre peo

O pobre rapaz escutava calado igual um aluno aprendendo a lio


No outro dia fugiu com a menina, os dois foram viver nos confins do serto
Ombro a ombro eles trabalhava a noite dormia num velho galpo
A menina dormia na cama e o caboclinho dormia no cho
Foi a primeira vez na histria, que uma rolinha teve gloria ser protegida por um gavio

O caboclinho com fibra e talento enfrentando o garimpo trabalho cruel


Sol a sol a procura do ouro sem ver pela frente o azul do cu
Respeitando a menina que amava o caboclo fez um bonito papel
Tao pertinho da fonte do amor, morrendo de sede por ser to fiel
Ele foi um gavio sem assa, com a menina dentro de casa bem distante da lua de mel

De volta na casa do velho disse o caboclinho sem temer castigo


Roubei sua filha com boa inteno pra cumprir meu dever voltei como amigo
O que do homem o bicho no come sua filha nasceu pra se casar comigo
J no sou mais um p de chinelo posso dar pra ela o melhor dos abrigos
Dois anos a luta foi dura, mais ela voltou virgem pura do meu lado no correu perigo

O velho muito arrependido abraou sua filha pedindo perdo


Pro mocinho ele foi dizendo entre eu e voc acabou o paredo
Seu talento e moral foi a flecha que fez meu orgulho tombar sobre cho
Minha filha vai ser a rainha l no seu castelo em eterna unio
De voc j no tenho magoa, foi homem at de baixo dagua, vai ser o genro do meu corao

44
Ingrata Maria
Goiano & Paranaense Raul Torres

Tom: B
E |----------------------------------
B |----------------------------------
G#|-2-2/7-7-7-7-7-7-5-5-5-3-3-3-2-2-2
E |-2-2/7-7-7-7-7-7-6-6-6-4-4-4-2-2-2
B |----------------------------------
De noite estive sonhando contigo minha princesa

E |----------------------------------
B |----------------------------------
G#|/5-5-5-5-5-5-5/7-7-5-3-2-2-0-0----
E |/6-6-6-6-6-6-6/7-7-6-4-2-2-0-0-2-2
B |-------------------------------4-4
Acordando eu no vi nada o sonho no certeza

E |---------------------------------
B |---------------------------------
G#|---------------------------------
E |--------------0-2-2---4-4-2-2-0-0
B |0-0-0-0-0-0-0-2-4-4-0-5-5-4-4-2-2
Eu passeio o dia todo chorando s de tristeza

E |---------------------------------
B |---------------------------------
G#|---------------------------------
E |--------------0-2-2-------0-2-4-4
B |0-0-0-0-0-0-0-2-4-4-0-0-0-2-4-5-5
Esta minha triste vida eu confesso com franqueza
E |--------------------------------
B |--------------------------------
G#|/3-3-3-3-3-3-2------------------
E |/4-4-4-4-4-4-2-2-2-2-2/4-0-0----
B |---------------4-4-4-4/5-2-2-0-0
Ando vendo em toda parte teu semblante de beleza

triste viver no mundo amando sem ser amado;


Um corao que padece vive triste amargurado.
E um corao que no ama vive alegre sossegado!
Quando voc passar por mim com seu andar balanceado,
Eu prego os olhos no cho pra chorar mais disfarado.

Quisera que Deus me desse o prazer de conquistar


Desse seus olhinhos lindos a ventura de um olhar
E depois de um certo tempo suas mozinhas segurar
E encostada no meu peito s pra voc escutar
E sentir o tic-tac de um corao disparar.

45
Eu quisera ser o pente pra ajeitar seu penteado
E uma fita cor de rosa no seu cabelo amarrado
Eu quisera ser a barra do seu vestido rendado
Eu quisera ser o salto do seu sapato dourado,
Pra voe pisar bem forte nesse corao magoado.

A tristeza me acompanha, no tenho mais alegria


Eu procuro disfarar esta minha melancolia
Eu quisera nascer cego, talvez assim no sofria
E melhor viver nas trevas do que ver a luz do dia
Do que ver o semblante de voc Ingrata Maria!

46
Janela da Vida
Joo Mulato & Pardinho Paraiso e J. J. Barretos

Tom: D
E |2/5-5-5-5-7--8h10p8-5h7p5|/14-14-14-14-12-10h12p10-7h8p7|
B |3/7-7-7-7-8-10------7----|/15-15-15-15-13-12-------8----|
G#|-------------------------|------------------------------|
E |-------------------------|------------------------------|
B |-------------------------|------------------------------|

E |7/10-10-10-12-7-5--/14-14-14-15-14-12-10--9-7-5-3-2|
B |8/12-12-12-14-8-7--/15-15-15-17-15-14-12-10-8-7-5-3|
G#|---------------------------------------------------|
E |---------------------------------------------------|
B |---------------------------------------------------|

E |3/5-3-2-0--2-0----------------------------|
B |---------------3-2-3-2--------------------|
G#|---------------------------------------1-1|
E |-----------------------3-2--3-2-3-4-5--0-2|
B |---------------------------------------2-3|

D A
Nos Poros da mente vagueiam lembranas e chora criana do meu tempo ido
G D
Gorjeiam-se aves de verdes sem fim, cheiroso alecrim dos campos floridos
A
Tambm me rodeia os meus companheiros velhos boiadeiros heris do serto
G D A D
Boiada e berrante tambm currutela, tapera e donzela e a estrada de cho

A D A G D
Foi quando deixei mais que de repente a estrada e o sol quente campinas floridas
A D A D
La estava o passado com a saudade brincando, e os anos fechando a janela da vida

Crescia com os anos de viagem a viagem, a grande estiagem em meu corao


Cochilava no tempo as lguas vencidas, tambm despedidas deste velho peo
L estava tambm meu cavalo ensinado j velho e cansado sem mais serventia
At o latir da cachorra da cachorra baleia, por certo anseia por pousada e vigia

47
Joo e Maria
Ronaldo Viola & Joo Carvalho Arlindo Moniz

Tom: B
E |4-2---------4-2---------4-2---------------2-0---------2-0---------2-0---------------7
B |----4-----------4-----------4-9-9/11-9-7------2-----2-----2-----2-----2-11-11/12-11-7
G#|----------3-----------3-------------------------2-3---------2-3--------- 9- 9/11- 9-7
E |--------2-----------2---------7-7/ 9-7-6--------------------------------------------7
B |------4-----------4------------------------------------------------------------------

B F#7
E l vem Joo de chapu de palha, fazendo poeira no carreador
B
E l vai Maria enche a lata dgua, pra lavar os ps do trabalhador

F#7
Joo chega em casa altivo e contente, igual um presidente e beija Maria
B
Enrola um cigarro engole a cachaa com a pacincia que ningum diria
F#7
Joo chama a lua e tira a cantiga pra desafogar a sua paixo
B
E l vai Maria lhe fazer carinho, s ela conhece aquele caboclo

Joo Olha o gesto de sua morena que pisca e acena querendo carinho
E l vai Joo laar-lhe a cintura beija com ternura e sussurra baixinho
Joo no se esconde das coisas da vida, mas nunca responde sobre o pensamento
Maria conhece o seu corao que pode explodir a qualquer momento

48
Jos Lavrador
Valdo Reis & Pratini Ronaldo Viola e Juliana Andrade

Tom: G
E|------------2-/10-8-7-------7-----------10-8-7|
B|----------3-----------8---8---10---7-10-------|
G|--------2---------------7--------7------------|
D|0-2-3-4---------------------------------------|
A|----------------------------------------------|
E|----------------------------------------------|

e|7-6-5---5- 8-7-5-3-0|-----------------|------------------|
B|8-7-6-6-6-10-8-6-5-1|-----------------|------------------|
G|------7-------------|-----------------|-----------------0|
D|--------------------|0-2-3-4-2--------|----------------0-|
A|--------------------|----------3-2-0--|2-0---5-3-2-0--2--|
E|--------------------|----------------3|----2---------3---|

G D
Sua rotina trabalho pesado o seu apelido Jos lavrador
C G
A indstria solo sagrado e o cargo o volante de um forte trator
D
O engate uma tombadeira, arado possante movido a motor
C G D G
o retrato do dia a dia do homem chamado de agricultor

e|-------------------|-------------------|------------------|
B|-------------------|-------------------|------------------|
G|-------------------|------------------0|-----------------0|
D|0-2-4-0-2-4-2-0-5-0|0-2-4-2----------0-|----------------0-|
A|-------------------|--------3-2-02----|2-0---5-3-2-0--2--|
E|-------------------|---------------3---|----2---------3---|

O semblante carrega um sorriso mais dentro do peito carrega uma dor


A injustia do nosso governo castiga e massacra causando terror
Fazendeiros de pequeno porte, tambm sitiantes perderam valor
Convivendo com o prejuzo a bandeira do mastro vai perdendo a cor

Do outro lado latifundirios mantem a fachada sem nenhum pudor


Apoiados pela indulgencia das leis que protegem o grande infrator
O sustento na mesa do pobre o mesmo feijo que alimenta o doutor
Tanto faz para o rico ou pobre o preo igual para o consumidor

Quando ele acerta a colheita empata na hora que s do valor


A balana do nosso mercado no pesa moral e no pesa suor
Sacrifcio e dignidade sai fora da conta do atravessador
Quando deixa de empatar o lucro carrega o nome, Jos devedor

49
Juventude na Viola
Z Mulato & Cassino Z Mulato

Tom: B
E |12-11--9-7-6-7--8--9----9-7-6-6-6-6/7-7-7|
B |14-12-11-9-7-9-10-11---11-9-7-7-7-7/9-9-7|
G#|----------------------------------------7|
E |----------------------------------------7|
B |-----------------------------------------|

E |--------------------7-6--6---12-11|
B |------------------9---7-7--14---12|
G#|----7-8-7-8-8---8-----------------|
E |7-9-----------7-------------------|
B |----------------------------------|

B F#
Nossa msica raiz, nunca esteve to forte
B
Hoje a viola canta, no Brasil de sul a norte
C# F# C# F#
Sempre lutamos por ela, e hoje pra nossa sorte
E B F# E F# B
A garotada sem medo, faz da viola o brinquedo, nos dando maior suporte

No se pode ocultar, uma luz no espigo


Por mais que queira esconder, sai pela fresta o claro
Assim nossa viola, que atravs de geraes
Na msica brasileira, tem sido a porta bandeira, de quem defende o serto

Vejo com muito prazer, rica e vendendo sade


Nossa moda de viola, tocando mais amide
A viola rainha, que em sua nova atitude
No despertar de um sono, restabelece o seu trono, nos braos da juventude

Digo ao jovem cantador, que o mandamento primeiro


Ter franca brasilidade, dever do violeiro
Em toda arte que faa, procure ser verdadeiro
Cantando com o corao, defenda nosso serto e seja bem brasileiro

50
Largado
Israel & Rodolfo
Tom: E
E |[12]--------------------[7]--------------------------|
B |[12]--0------------0----[7]--------------------------|
G#|[12]------------------8-[7]-1p0---0h1p0--------------|
E |[12]------2-4/7--7--9---[7]-----2-------2-0---7-9/12~|
B |[12]-0--4---------------[7]-----------------9--------|

E |-----------------------------------[7]---[12]|
B |-----------------------------------[7]---[12]|
G#|/6-6-6-6-6-6-5-5/8-8-8-7-----------[7]---[12]|
E |/7-7-7-7-7-7-5-5/9-9-9-7-----------[7]---[12]|
B |-------------------------0-2-3-4-0-[7]-0-[12]|

E B7 E
Quem gosta de homem bonito viado, Mui gosta de dinheiro
B7 E
Se o fil de primeira, No gasta muito tempero
E7 A B7 E
Se mui virar galinha, Eu vou morar no galinheiro

B7 E
Dinheiro eu tenho de sobra, Ta guardado no moc
B7 E
S ta me faltando sorte, Pra coisa fica mio
E7 A B7
Atrs de um rabo de saia, Nis manhece na gandaia
E
Quanto mais mui mio

Eu no sou muito exigente


Nem sou muito largado
Eu tomo whisky com gelo
Bebo pinga com limo
Tendo mulher na parada
Bandida boa ou safada
quenga que eu acho bo

51
Mgoa de Boiadeiro
Pedro Bento & Z da Estrada Non Baslio e ndio Vago

Tom: E
E |4-5-7--9--9--9--9-11-11-11--9-7-7-7-7--9-7--9-10-11-11--9--9-5-5-4--------|
B |5-7-9-10-10-10-10-12-12-12-10-9-9-9-9-10-9-10-11-12-12-10-10-7-7-5-5-4----|
G#|-------------------------------------------------------------------5-3-3-0|
E |-----------------------------------------------------------------------4-0|
B |--------------------------------------------------------------------------|

B7 A E B7 E
Antigamente nem em sonho existia tantas pontes sobre os rios nem asfalto nas estradas
B7 A E B7 E E7
A gente usava quatro ou cinco sinuelos pra trazer o pantaneiro no rodeio da boiada
A E B7 E E7
Mas hoje em dia tudo muito diferente com o progresso nossa gente nem sequer faz uma ideia
A B7 E C#m B7 E
Que entre outros fui peo de boiadeiro por este cho brasileiro os heris da epopeia

E |-----------------------|
B |--4-4-2-2-0-0----------|
G#|0-3-3-1-1-0-0-0----3---|
E |0-------------0-3/4--4-|
B |----------------------5|

Tenho saudade de rever nas currutelas as mocinhas nas janelas acenando uma flor
Por tudo isso eu lamento e confesso que a marcha do progresso a minha grande dor
Cada jamanta que eu vejo carregada transportando uma boiada me aperta o corao
E quando olho minha traia pendurada de tristeza dou risada pra no chorar de paixo

O meu cavalo relinchando pasto a fora que por certo tambm chora na mais triste solido
Meu par de esporas meu chapu de aba larga uma bruaca de carga um berrante um faco
O velho basto o sinete e o apero, o meu lao e o cargueiro, o meu leno e o gibo,
Ainda resta a guaiaca sem dinheiro deste pobre boiadeiro que perdeu a profisso.

No sou poeta, sou apenas um caipira e o tema que me inspira a fibra de peo.
Quase chorando embudo nesta mgoa rabisquei estas palavras e saiu esta cano
Cano que fala da saudade das pousadas que j fiz com a peonada junto ao fogo de um galpo
Saudade louca de ouvir o som manhoso de um berrante preguioso nos confins do meu serto.

52
Maior Fera do Mundo
Carreiro & Carreirinho Carreirinho e Z Procpio

Tom: A
E |---------------------------|
B |---------------------------|
G#|0-1-2-3-0---1---4h5-2h3----|
E |0-2-3-4---2---0---------4h5|
B |---------------------------|

A D E7 A
A maior fera do mundo, ainda o ser humano
D A
No ona nem pantera, nem tubaro no oceano
E7 A
Ex-mulher me dos meus filhos, jogou eles contra mim
Am(?) A E7 A E7 A
Friamente me traia, comentava que queria na sarjeta ver meu fim

E7 A E7 A
Esta assim nosso mundo, e cada vez mais profano
G E A
S traies e inimigos, maior fera o ser humano

Uma famlia no lar, tranquilo esto descansando


Ladres invade o recinto, se reagem vo matando
Pra crucificar os pais, abuso de sua filha
E o que no pode levar, destroem s pra deixar a cicatriz na famlia

O que se passa hoje em dia, preciso fazer protesto


Precisamos dar um fim, nesta onda de sequestro
Voc que esta no poder, no di porque filho nosso
Decretem pena de morte, pois pode virar a sorte amanha ser o vosso

53
Mar Vermelho
Tio Carreiro & Pardinho Carreirinho

Tom: E
E |0-----------------/11-11-11-11-11- 9-7-4-4-4|
B |0-----------------/12-12-12-12-12-10-9-5-5-5|
G#|0-0-0-0-0-1-3-5-8---------------------------|
E |0-0-0-0-0-2-4-5-9---------------------------|
B |0-------------------------------------------|

E B7 E
Durante o ms de dezembro, a chuvarada caiu
B7 E
E as guas do rio do peixe com as enchente subiu
B7 E
500 metros de vargem, as guas todas cobriu
E7 A B7 E
Parecia um mar vermelho ai, naquele serto bravio

Frederico Cruz morava, do outro lado do rio


E uma menina doente, um medico a me pediu
Um camarada da casa aproveitando um estio
Num cavalo de corrida ai, pela estrada ele partiu

Na ida ele teve sorte, a chuva no impediu


Quando volto com os remdios uma capa ele vestiu
No travessa o rio de novo, uns galhos sobremergido
Cavalo espanto e ele ai, na correnteza caiu

Cavalo nadava muito, do outro lado saiu


Chegando em casa molhado, com os areio e cochonil
A famlia vendo aquilo o povo se reuniu
Foram achar no outro dia ai, l numa curva do rio

Nos galhos o corpo enroscado, que a famlia descobriu


Com os remdio ainda no bolso, pra leva e no conseguiu
Deixaram uma cruz fincada, naquele lugar sombrio
Todos que soube a noticia ai, no teve quem no sentiu

54
Meu Passado
Z Antnio & Divanei Dino Franco

Tom: B
E |-----------------------------------|
B |-----------------------------------|
G#|-----------------------------------| F#7 B
E |---4-4-4-2-2-0-0----7-7-6-4-2-0---7|
B |/5-5-5-5-4-4-2-2-/9-9-9-7-5-4-2-/7-|

B F#7
Se os dias do meu passado renascessem novamente
B
Eu teria ao meu lado quem eu amo loucamente
E F#7
Meus sonhos teriam vida, meus lbios beijos ardentes
E B E B
Eu no padecia mais, afogando os meus ais e a dor que meu peito sente

Se voltassem meus cabelos cor de antigamente


As rugas que me envelhecem se acabavam simplesmente
Minhas pernas enfraquecidas ficariam resistentes
Eu seguia a minha estrada, procurando minha amada que eu perdi para sempre

E |----------------------------------------------------------------------7
B |----------------------------------------------------------------------7
G#|----------------------------------------------------------------------7
E |/4-4-4-4-4-2/4-4-4-2-4-5-5-7-7-4--/6-6-6-6-6/11-11-11-2---------------7
B |/5-5-5-5-5-4/5-5-5-4-5-7-7-9-9-5--/7-7-7-7-7/12-12-12-4-0h2-2-4-4-2-2--

Vai bem longe aquele tempo, que jamais me sai da mente


Levando a felicidade que passou to de repente
Assim como o vento passa vai pra outros continentes
Passou minha mocidade s deixando por maldade a velhice no presente

Vivo mergulhado em pranto a fingir que estou contente


Carregando um sentimento que aos poucos mata agente
No silencio dos meus dias eu alcanarei somente
No final da minha estrada, onde eu encontro morada, pra morar eternamente

55
Moa Caipira
Goiano & Paranaense Goiano e Hamilton Carneiro

Tom: B
E |----------------------------|--------------------------------------|
B |/12-7----/12-7--------------|--------------------------------------|
G#|-----7--------7--7-7h8p7-7--|7h8p7----------8-7--------------------|
E |------7--------7-----------9|------9-6----------9-6----------------|
B |----------------------------|----------9-7----------9-7-9-7-5-7-5-4|

E |---------------------------|---------------|-----------|
B |---------------------------|---------------|--------5-4|
G#|2h3p2---------2h3p2--------|---------------|----3-5----|
E |------4-2-----------4-2----|---------------|---4-------|
B |----------4-0-----------4-0|0-2-4-2-0-4-4/5|/5---------|

E |-----------|---------------|----------|
B |--------4-2|---------------|----------|
G#|------3----|3-2------------|----------|
E |----2------|----4-2-----2/7|2p0-------|
B |0-4--------|--------4-0----|----4p2--0|

B F#7
Uma moa da roa da perna bem grossa e feitio no olhar
B
Na flor da idade veio pra cidade para estudar
B7 E
Mora com a madrinha que minha vizinha de apartamento
B F#7 B
To apaixonado por este pecado que um monumento

E |----------------------------------------|----------|
B |----------------------------------------|----------|
G#|/5-5-5-2--------------------------------|----------|
E |---------4-2-4-2---2-----------------2/7|2p0-------|
B |-----------------5---5-4-5-4-2-4-2-0----|----4p2--0|

Ela fala errado pronomes trocados e sem concordncia


nois fica nois vai nois foi nois sai mais no tem importncia
Ela disse pra mim responde meu benzim esta minha pregunta
Se nessa esfregana eu pegar a pana nois dois se ajunta

Essa moa caipira uma hora me pira quando abre a boca


Fala zoio e zuvido pra mim tem sentido um dizer de cabocla
Esta convivncia j deu influencia no meu portugus
Vejam s como pode j falo pra mde caipirei de veiz

Eu gosto da linguagem toda caipiragem desta caboclinha


Mesmo falando errado eu no to preocupado ela minha rainha
Sobre a pregunta dela apertou a fivela mais vou responder
Se vier um filinho j tem um cantinho pra juntos viver

56
Mundo Velho
Tio Carreiro & Pardinho Lourival dos Santos e Tio Carreiro

Tom: A

E |0h2-5-4-2-0-| |0h2-4-4-----|
B |------------| |--------3-2-|
G#|------------| A |------------| A E7 A
E |------------| |------------|
B |------------| |------------|

A E7
Deus fez o mundo to lindo,s belezas que rodeia.
A (E7 A)
Colocando l no espao lua Nova e Lua Cheia
D E7
Fez o sol e a luz divina que o mundo inteiro clareia,
D A
No cu estrelas paradas a lua e o sol passeia

Deus fez o mar azulado e o castelo da sereia.


Fez peixe grande e pequeno e tambm fez a baleia.
Fez a terra onde formei meu cafezal de ameia,
Baixado cheio de gua onde meu arroz cacheia
.
Deus fez cachoeiras lindas l na serra serpenteia.
Fez papagaio que fala passarada que gorjeia.
Tangar canta de bando a natureza ponteia
Pros catireiros de penas que no galho sapateia.

Mundo velho mudou tanto que j est entrando areia.


Grande pisa nos pequenos coitadinhos desnorteia
Quem trabalha no tem nada enriquece quem tapeia.
Pobre no ganha demanda rico no vai pra cadeia.

Na moral do velho mundo quem no presta pisoteia.


Os mandamentos de Deus tem gente que at odeia.
Igrejas esto vazias antigamente eram cheias.
O que ruim est aumentando o que bom ningum semeia.

meu Deus venha na terra porque a coisa aqui ta feia,


Mas que venha prevenido traga chicote e correia.
Tem at mulher pelada no lugar da Santa Ceia.
S Deus pode dar um fim no que o diabo desnorteia

57
Nas Garras da Saudade
Marcos Violeiro & Cleiton Torres Dom Miguel

Tom: C
E |------3---3-1---------|------3-5-5-3/5-5-3-1---|
B |------5-5-5-3-5-3-----|----3---6-6-5/6-6-5-3-5-|
G#|----4---4-----4-3-4-3-|--3-------------------4-|
E |--3---------------5-3-|3-----------------------|
B |5---------------------|------------------------|

E |----3/08-08-6-6-5-3/5-5-08-08-7-6-5-1---|----3/5-5-3-1/3-3---|
B |--5---10-10-8-8-6-5/6-6-10-10-8-7-6-3-5-|--5---6-6-5-3/5-5-5-|
G#|4-------------------------------------4-|4-----------------4-|
E |----------------------------------------|--------------------|
B |----------------------------------------|--------------------|

C F G C
Eu estou nas garras de uma saudade, aqui na cidade 24 horas
G C
Saudade da roa e da casinha branca, onde o galo canta ao romper da aurora
F G C
Lugar que passei minha juventude, com toda a sade e muito vigor
F D G
Domando cavalos e jogando lao, paixo proibida foi o meu fracasso
C
Deixei para sempre meu recanto do amor

G C G C
Domingo de missa, l na capelinha tinha batizados e consagrao
G C G C
Chegava os festeiros trazendo as ofertas, pra realizarem o grande leilo
D G D G
A moa faceira vestida de chita, cheirosa e bonita mais no dava bola
F C G C
E o bom violeiro pra desabafar, e pra no chorar machucava a viola

G C G C
Essa saudade falta com respeito no tem o direito me fazer chorar
G C G C
E a viola geme encostada no meu peito o nico jeito de me consolar
G C G C
E a viola geme encostada no meu peito o nico jeito de me consolar

58
O Cervejeiro
Divino & Donizete Donizete dos Santos

Tom: E
E |-----------------------------------|
B |-0------------------0--------------|
G#|----------------------7------------|
E |--4-7-5-4-----4/7--7----9-7--------|
B |5---------7-0---------------7-7-7/9|

E |-------------------------------------|
B |--0-------------------0--------------|
G#|-----8-7-----------------------------|
E |---7-----9-7-9/11-7----7-11-9-7-5----|
B |9--------------------9------------7-5|

B7 E B7 E
Sou cervejeiro, sou de Iturama, Bebo cristal, bebo Skol e bebo Brahma
B7 E7 A B E
Cerveja antrtica, ta bom pra mim, Kaiser gelada, Itaipava e a nova Skin

E
Um ditado muito antigo ta na boca da moada
A E B7 E
Eu vou dizer outra vez por que isso me agrada
A B E
Cerveja gelada, boi na invernada e mulher pelada

Outro ditado antigo que ta boca da gente


Eu vou dizer pra vocs o que no me deixa contente
Cerveja quente, boi doente e mulher da gente

Festa que no tem cerveja eu acho uma pilantragem


Eu chuto o pau da barraca, eu no levo desvantagem
Sou de coragem, no tem friagem sou da muagem

Qualquer marca de cerveja, me d prazer no sabor


Estilo do cervejeiro, mulherada d valor
comedor, conquistador e namorador

59
O Ciumento
Juliana Andrade Divino dos Santos

E |9-9-9-12-9--------------9-------------------|
B |-----------10--10-10-10---10-5--5-5-5-7-7---|
G#|------------------------------------------5-|
E |--------------------------------------------|
B |--------------------------------------------|

E |9-9-9-12-9---------------9------------5-9-7|
B |-----------10---10-10-10---5--5-5-5-7------|
G#|-------------------------------------------|
E |-------------------------------------------|
B |-------------------------------------------|

E |10-10-10-14--10/7-7---7-7-7-10-7/4-4---4-4-4-7----|
B |-----------------------------------------------4/5|
G#|--------------------------------------------------|
E |--------------------------------------------------|
B |--------------------------------------------------|

E |/10-10-10---9-7-7-7--5-4-5-4---5|
B |/12-12-12-10--9-9-9-7--5-7-5-7-5|
G#|-----------------------------6-5|
E |--------------------------------|
B |--------------------------------|

E |9-9-9-12-9--------------9-------------------|
B |-----------10--10-10-10---10-5--5-5-5-7-7---|
G#|------------------------------------------5-|
E |--------------------------------------------|
B |--------------------------------------------|

E |9-9-9-10-9-------------9-8-7-5----|
B |-----------10---10-10-10-9-8-7-9-7|
G#|-------------------------------8-6|
E |----------------------------------|
B |----------------------------------|

E |--------5-5-10|10-9-7---------|
B |----7-7-------|-------10-9-7--|
G#|6-6-----------|--------------8|
E |--------------|---------------|
B |--------------|---------------|

E |9-7-----------|7-5-4--------|---------|
B |----10-9-7----|------7-5----|--7-6-5-5|
G#|-----------8-6|----------6-5|5--------|
E |--------------|-------------|---------|
B |--------------|-------------|---------|

E |--------5-5-10|10-9-7---------|
B |----7-7-------|-------10-9-7--|
G#|6-6-----------|--------------8|
E |--------------|---------------|
B |--------------|---------------|

60
E |9-7-----------10-9-7---7----------|--------7-10---|
B |----10-9-7-----------10-10-9-7----|----9-9------10|
G#|-----------8-------------------8-8|8-8------------|
E |----------------------------------|---------------|
B |----------------------------------|---------------|

E |---------------------------------|
B |----5----------------------------|
G#|5-5---5--------5-----------------|
E |--------5--5-5---5-0---0-0-2-0---|
B |--------------------------------2|

E |----------------------------------|
B |----5-----------------------------|
G#|5-5---5---------5------------1-2-3|
E |--------5---5-5---5-0--0-0-2-2-3-4|
B |----------------------------------|

E |--------------------------|--------------------------|
B |/7-7-7-5-7-5--------------|/7-7-7-5-7-5--------------|
G#|/6-6-6-5-6-5-6-5-6-5-3-1-0|/6-6-6-5-6-5-6-5-6-5-3-1-0|
E |-------------7-5-7-5-4-2-0|-------------7-5-7-5-4-2-0|
B |--------------------------|--------------------------|

E |9-9-9-12-9--------------9-------------------|
B |-----------10--10-10-10---10-5--5-5-5-7-7---|
G#|------------------------------------------5-|
E |--------------------------------------------|
B |--------------------------------------------|

E |9-9-9-10-9-------------9-8-7-5----|
B |-----------10---10-10-10-9-8-7-9-7|
G#|-------------------------------8-6|
E |----------------------------------|
B |----------------------------------|

E |--------5-5-10|10-9-7---------|
B |----7-7-------|-------10-9-7--|
G#|6-6-----------|--------------8|
E |--------------|---------------|
B |--------------|---------------|

E |9-7-----------|7-5-4--------|-------|
B |----10-9-7----|------7-5----|--7-6-5|
G#|-----------8-6|----------6-5|5------|
E |--------------|-------------|-------|
B |--------------|-------------|-------|

E |--------5-5-10|10-9-7---------|
B |----7-7-------|-------10-9-7--|
G#|6-6-----------|--------------8|
E |--------------|---------------|
B |--------------|---------------|

E |9-7-----------10-9-7---7----------|--------7-10---|
B |----10-9-7-----------10-10-9-7----|----9-9------10|
G#|-----------8-------------------8-8|8-8------------|
E |----------------------------------|---------------|
B |----------------------------------|---------------|

61
E |-------------------------------------------|
B |-7-9---7-7-9---7-7-10---7-7-10--7-7-9---7-7|
G#|8-8---8-8-----8-8------8-8-----8-8-----8-8-|
E |-------------------------------------------|
B |-------------------------------------------|

E |12-12-12-12-10-9----9---|
B |-----------------12---10|
G#|------------------------|
E |------------------------|
B |------------------------|

E |-------------------------------------------|
B |-7-9---7-7-9---7-7-10---7-7-10--7-7-9---7-7|
G#|8-8---8-8-----8-8------8-8-----8-8-----8-8-|
E |-------------------------------------------|
B |-------------------------------------------|

E |12-12-12-12-10-9----9-7-8--9|
B |-----------------12---8-9-10|
G#|----------------------------|
E |----------------------------|
B |----------------------------|

62
O Doutor e o Caipira
Goiano & Paranaense Goiano e Geraldinho

Tom: B
E |/11-11-11-11-09-4--/7-7-7-7-6-2|
B |/12-12-12-12-10-5--/9-9-9-9-7-4|
G#|-------------------------------|
E |-------------------------------|
B |-------------------------------|

E |---------------------------------------11-14|
B |-----------------------------------/12------|
G#|------3-2p0------2--------------------------|
E |----2-------2---2--------6---6-9-7----------|
B |0-4-----------4-----/7-7---7----------------|

B G#m F#7
Eu dou motivo pra me chamar de caipira
B
Mas continuo lhe tratando de senhor
F#7
Eu no me zango, pois no disse uma mentira
E B
Pelo contrario isso ate me da valor
F#7
Sua infncia foi lies de faculdade
B
Na realidade hoje grande doutor
B7 E
No tive estudo minha escola foi trabalho
B F#7 B
Desbravando meu serto no interior

Foi importante eu ter feito essa viagem, Pois conheci essa frondosa capital
Estou surpreso vendo tanta aparelhagem, Para o senhor isso tudo normal
Sou o paciente que o destino lhe oferece, No me conhece como um profissional
L onde eu moro o senhor se sentiria, Como eu me sinto aqui nesse hospital

L eu domino aquele incndio alastrado, Que sendo um raio deixa fogo no espigo
Se der um golpe em um jatob airado, Eu sei o lado que a arvore cai no cho
Sou especialista em mata-burros e porteiras, Sei a madeira que se usa no mouro
Vamos comigo ver meu mundo a cu aberto, Onde o trabalho tambm uma operao

Todas as vezes que me chamam de caipira, um carinho que recebo de algum


uma prova que a pessoa me admira, E nem calcula o prazer que agente tem
Doutor agora nos j somos bons amigos, Vamos comigo conhecer o meu alm
Para dizer que sou caipira da cidade, Mas l no mato eu sou um doutor tambm

63
O Pagode Continua
Marcos Violeiro & Cleiton Torres Marcos Violeiro

Tom: E
E |----------------|----------------|------------------------|
B |-0-----0----0---|-0-----0----0---|-0----------------------|
G#|----------------|----------------|---------3p0--1p0-------|
E |----2/5---5----4|----2/5---5----4|-----2p0----------2p0---|
B |0--4-/7--7----2-|0--4-/7--7----2-|0--4-------------------4|

E |--------------------|------------------|
B |--0----0-----0------|--------0----0----|
G#|---------------10-10|8p7---------------|
E |/7--7-7--9-12-------|----9-7---5-4--2-0|
B |--------------------|------------------|

E B7 E
Sou violeiro sou, e s canto moda boa
B7 E
Fazendo verso rimado, to folgado to atoa
B7 E
Viola nova eu amanso, viola velha eu domino
B7 E
O prazer da cantoria faz parte do meu destino
E7 A E
Amizade de caboclo coisa que no tem fim
B7 E
Gosto de mais dos meus fs e eles gostam de mim

E |------------------|
B |-0----------------|
G#|---------------3/8|
E |-------0-2-3-4----|
B |0--2-4------------|
B7 E
Na casa do sertanejo, no bailo ou l na rua
B7 E
Logo a tristeza isola, tem muito som de viola o pagode continua

Eu levo alegria sim, tristeza no levo no


Pois um ponteado bem feito balana o corao
Repicar uma viola no coisa pra quem quer
A viola manhosa igualzinha uma mulher
A paixo vem no embalo nas dez cordas afinadas
No repicado bonito suspira a mulher amada

Voz e viola em dueto so coisas que se admira


Fazem parte da bagagem da nossa moda caipira
Serto boiada e rodeio so coisas do sertanejo
Um pouco de tudo isso em todo lugar eu vejo
Vai um violeiro outro vem veja s como que
Ou velho ou novo tocando a vida vamos levando e a viola esta de p

64
O Trono da Saudade
Goiano & Paranaense Goiano e Romeu Wandscher

Tom: E
E |------------------------|-------------------------------|
B |-0-----0-------0--------|-0-----0---------0--------0----|
G#|-------------3----/8-7-7|----------------------3/5---3-3|
E |-----4-----4------------|-----2-----2-4/5---------------|
B |0--5-----5-------0------|0--4-----4---------0-----------|

E |--------------------------|----------------------------------|
B |-0-----0-----------0------|-0-----0------0-------------------|
G#|-------------3h5p3--------|----------5-3-----1-0h1p0------12H|
E |-----4-----4---------5-4-2|----2-----------4---------2-0--12H|
B |0--5-----5----------------|04---4---------------------------|

E B7 E
Meu pagode um p de vento e a viola um furaco
B7
Ela da o sentimento aumentando a inspirao
A E
O ponteio da viola estremece o corao
B7 B7
Sapateia rapaziada e levanta poeira do cho

Por muito tempo esta viola vez o povo arrepiar


A multido aplaudir e a plateia delirar
Nas mos do rei do pagode s faltava ela falar
Esta viola pagodeira eu gosto de pontear

No dia 15 de outubro chorou o Brasil inteiro


A perda de um grande mestre um exemplo de violeiro
O maior de todos tempos um campeo pagodeiro
A eterna majestade o saudoso Tio Carreiro

O som da sua viola ficou aqui no Brasil


A batida do pagode coisa igual nunca se viu
Pardinho no canta mais dessa terra ele partiu
Porque o mestre Tio Carreiro deixou um espao vazio

65
Oi Paixo
Tio Carreiro & Pardinho Tio Carreiro e Z Paulo

Tom: A
E |------------------------------------|
B |/4-4-4-4-4-4------------------------|
G#|/3-3-3-3-3-3--3-3-0-0-3-3-1-1-0h1p0-|
E |--------------4-4-0-0-4-4-2-2-0h2p0-|
B |------------------------------------|

E |-------------------------------------|
B |-------------------------------------|
G#|-------------------------------------| A E7 A
E |0/2-2-2-2-2/5-5-5-4-0-0-0-0/4-4-2-0--|
B |2/3-3-3-3-3/7-7-7-5-2-2-2-2/5-5-3-2-0|

A E7
No suportando a saudade, meu bem vim lhe visitar
A
Trazendo flores bonitas, pra o nosso amor enfeitar
D E7
Distante dos teus carinhos, eu sofro tanto e reclamo
D E A
Te juro minha querida, vou terminar minha vida, nos braos de quem eu amo
B E7 A
Ooohhh, Hoooi paixo, nos braos de quem eu amo

Nosso amor no tem limite, No sei onde vai parar


Quanto mais voc me ama, Mais eu quero te amar
Uma dor de cotovelo, Machuca eu e voc
Somos dois apaixonados, Vive algum ao nosso lado
Fazendo a gente sofrer...

O... Hoi... Paixo, Fazendo a gente sofrer...

O nosso caso de amor, Est correndo perigo


Mas quem tem anjo de guarda, No cai nas mo do inimigo
Somente as foras ocultas, Podero nos castigar
Mas amar no pecado, Deus est do nosso lado
Ningum vai nos separar...

O... Hoi... Paixo, Ningum vai nos separar

66
Pagode em Braslia
Tio Carreiro & Pardinho Teddy Vieira e Lourival dos Santos

Tom: E
E |-11-11--0-2--0-5--0-4--0-7--0-2--0-5--0-4--0-7--0- 9--0-11--0-12|
B |-12-12--0-4--0-7--0-5--0-9--0-4--0-7--0-5--0-9--0-10--0-12--0- 9|
G#|----------------------------------------------------------------|
E |----------------------------------------------------------------|
B |0-----0----0----0----0----0----0----0----0----0----0------0-----|

E B7
Quem tem mulher que namora, Quem tem burro impacador
E E B7
Quem tem a roa no mato me chame, Que jeito eu dou
E7 A AEA
Eu tiro a roa do mato sua lavoura melhora
B7 E
E o burro impacador eu corto ele de espora
B7 E
E a mulher namoradeira eu passo o coro e mando embora

Tem prisioneiro inocente no fundo de uma priso


Tem muita sogra increnqueira e tem violeiro embruio
Pro prisioneiro inocente eu arranjo advogado
E a sogra increnqueira eu dou de lao dobrado
E o violeiro embruio com meus versos esto quebrados

Bahia deu Rui Barbosa, Rio Grande deu Getlio


Em Minas deu Juscelino, De So Paulo eu me orgulho
Baiano no nasce burro e gaucho o rei das cochilhas
Paulista ningum contesta um brasileiro que brilha
Quero ver cabra de peito pra fazer outra Braslia

No estado de Gois meu pagode est mandando


O bazar do Vardomiro em Braslia o soberano
No repique da viola balancei o cho goiano
Vou fazer a retirada e despedir dos paulistano
Adeus que eu j vou me embora que Gois t me chamando.

67
Pagode na Praa
Tio Carreiro & Pardinho Jorge Paulo e Moacyr dos Santos
Tom: E
E |-------4-7p4------4-7p4-----2-5p2-----2-5p2-----4-7p4------4-7p4-/7-5-4-2------
B |-0-4-5--------4-5-------2-4-------2-4-------4-5-------4-5-----------------2/9-9
G#|-----------------------------------------------------------------/7-5-3-1-1/8-8
E |-------------------------------------------------------------------------------
B |0-----0------0---0-----0---0-----0---0-----0---0-----0---0------0-0-0-0-0------

E |12/-------4-7p4------4-7p4-----2-5p2-----2-5p2-----4-7p4------4-7p4-/7-5-4-2-0
B |----0-4-5--------4-5-------2-4-------2-4-------4-5-------4-5------------------
G#|--------------------------------------------------------------------/7-5-3-1-0
E |------------------------------------------------------------------------------
B |---0-----0------0---0-----0---0-----0---0-----0---0-----0---0-----0-0-0-0-0-0-

E B7
Fazer moda meu vcio, viola minha cachaa
E
No batido do pagode, meus dedos no embaraa
F#7 B7
Quando eu passo a mo na viola, fao levantar fumaa
E B7 E
O pagode no momento, ta sendo dono da taa

Porque o povo esta gostando, eu tambm t caprichando


B7 E B7 E
De vez enquando soltando, um pagode bom na praa

A sina de um cantador, somente Deus quem traa


Pra ser um bom violeiro, no pode fazer ruaa
Precisa deixar o nome, no lugar aonde passa
S cantando modas boas, pra agradar a grande massa
Da sorte nis no reclama, eu zelo por nossa fama
Aonde o povo me chama, tem pagode bom na praa

Quem quizer cantar pagode, mostre sangue e mostre raa


Se no for pra ser bem feito, s vocs que no faa
O batido do pagode, eu ensino at de graa
Quem canta pagode certo, pode crer que no fracassa
E o pagode brasileiro, d nome pra violeiro
Quem quizer ganhar dinheiro, pe pagode bom na praa

preciso ter amor, na profisso que abraa


ter um capricho bonito, levo ele por pirraa
moda roubada eu no gravo, nis no pega e nem no laa
vou lutar com meus colegas, luta limpa sem trapaa
minha viola nunca falha, ganhei flores e medalhas
e o trofu chapu de palha, com um pagode bom na praa

68
Pai Joo
Tio Carreiro & Pardinho Z Carreiro e Tio Carreiro

Tom: A
E |0-2-3-4-7-4---5-0-----0-2---------0--|
B |------------7-----2-3-----3-0-2-3---2|
G#|-------------------------------------|
E |-------------------------------------|
B |-------------------------------------|

E |--------------------------------------------|
B |--------------------------------------------|
G#|--------3-------------------------------10-8|
E |0-2-3-4---4-2-5-0-----0-2---0-2-4-7----9----|
B |------------------2-3-----3----------10-----|

A D E A
Caminheiro quem passar naquela estrada
D E A A7
V uma cruz abandonada como quem vai pro serto
D E A
H muitos anos neste cho foi sepultado
B E7 A
Um preto velho e herado por nome de pai Joo.

Pai Joo na fazenda dos coqueiros


Foi destemido carreiro querido do seu patro
Sua boiada o Xibante e o Brioso
No morro mais perigoso arrastava o carreto.

Numa tarde pai Joo no esperava


Que a morte lhe rondava l na curva do areio
E numa queda embaixo do carro caiu
do mundo se despediu preto veio pai Joo.

Caminheiro aquela cruz no caminho


J contei tudo certinho a histria de pai Joo,
Resta saudade daquele tempo que foi
o velho carro de boi no fundo do mangueiro.

69
Pai, Amigo Irmo
Valdo Reis & Pratini Peo Carreiro

Tom: D
E |5---5---10----10----5---5---5-3------|
B |--------------------------------5-6-7|
G#|4h5-4h5--9h10--9h10-4h5-4h5-5-3------|
E |--------------------------------3-4-5|
B |-------------------------------------|

E |/9--8/9--9/10-9/10-5---5---5-3-2----------------|
B |/10-9/10-------------------------5-3-5-3-2-2h3p2|
G#|---------9/10-9/10-4h5-4h5-5-3-1----------------|
E |---------------------------------3-2-3-2-0-0----|
B |------------------------------------------------|

D A D
Velho, meu pai, amigo, irmo
A D
Meu heri meu campeo
E A
Osso duro de roer
G A D
Velho quem foi rei majestade
D A A7
Apesar da sua idade velho
D
Tenho inveja de voc

Velho, trabalhou de sol a sol


Derramando seu suor
Pra poder me sustentar
Velho, quantas vezes pelos cantos
Por no poder te ajudar

Velho, l no campo entre os brutos


Na linguagem dos matutos
Voc foi meu professor
Velho, voc o papai Noel
Que pra mim caiu do cu
Velho, que foi feito s de amor
Velho...

70
Paixo Desenfreada
Ronaldo Viola & Praiano Praense e Eli Silva

Tom: A
E |-------------------------------------|
B |-------------------------------------|
G#|------------1-1/3-1----------/5-5-6-5|
E |0/2-2-2-2-3-2-2/3-2--2-0-0-0-/5-5-7-5|
B |2/3-3-3-3-5----------3-2-2-2---------|

E |------------------------------5|
B |2-0-----------5--0------------5|
G#|1-0-1-0-------6--0-1-0-----/5-5|
E |----2-0-1-0---4----2-0-1-0-/5-5|
B |--------2-2/5-5--------2-2-----|

A E7 A
Pela estrada da saudade me acompanha o abandono
E7 A
Nas noites de solido amanheo sem ter sono
E7 A
No meu peito magoado desgosto fez o seu trono

D E A
Herana de um grande amor que amei, sem ser o dono

Pra roubar o seus carinhos fazia longas jornadas


Cabresteado pela fora da paixo desenfreada
Ela era a estrela guia luz da minha caminhada
Para mim ela foi tudo eu pra ela no fui nada

Foi mais uma desventura como tantas que acontece


Ela j se esqueceu de quem nunca lhe esquece
Quando vou pra aquelas bandas corao chora e padece
Porque aqueles caminhos mil lembranas me entristecem

Ao passar a encruzilhada do meu cavalo montado


Ele quer tomar as rdeas ao caminho acostumado
No sabe que aquele amor j coisa do passado
E no sabe que seu dono esta morrendo, apaixonado

71
Piracicabano
Brenno Reis & Marco Viola Donizete Santos

Tom: E
(2x)
|-----------------------------|

E |--/14--11-- 9--7-- 9--7--5--4------7-- 9--11--12


B |--/12--12--10--9--10--9--7--5------9--10--12-- 9
G#|------------------------------------------------
E |------------------------------------------------
B |0----0---0---0---0--0---0--0------0--0---0---0--

E B7
Minha gente d licena eu quero chegar cantando
E
Quero chegar com sorriso no quero chegar chorando.
A B7
Eu venho de muito longe do Estado Paraibano
E
Eu gosto da Paraba, mas sou piracicabano.

Vim a procura de amigos, amigos quero encontrar


Eu quero deixar saudades, saudades quero levar
S cantando modas boas alegrei o cho baiano
Gosto muito da Bahia, mas sou piracicabano.

Um esteio que no cai, um jogador que ningum vence


assim que eu comparo o povo paranaense
Estado do ouro verde, cheguei alegre cantando
Eu gosto do Paran, mas sou piracicabano.

O estado de Gois belezas no tem igual


Onde est nossa Braslia, a capital federal
Fecho com chave de ouro despedindo dos goianos
Meu povo pode contar com esse piracicabano.

72
Poeira da Estrada
Daniel Rick e Joo Paulo

Tom: E
E |---------------------------------------------|
B |--5-5-5-4-4-4-2-2-2-0-0-0-2-2-2-0-0-0--------|
G#|0-5-5-5-3-3-3-1-1-1-0-0-0-1-1-1-0-0-0-1-1-2-3|
E |0-------------------------------------2-2-3-4|
B |---------------------------------------------|

E |---------------------------------------------|
B |--5-5-5-4-7-4-2-5-2-0---0-0-0-2/4-4-4-0-0----|
G#|0-5-5-5-3-7-3-1-5-1-0-0-0-0-0-1/3-3-3-0-0-1-0|
E |0---------------------0-------------------2-0|
B |---------------------------------------------|

E B7
Levantei a tampa, voltei ao passado, Meu mundo guardado dentro de um ba
E
Encontrei no fundo todo empoeirado, O meu velho lao bom de couro cr
E7 A
Me vi no arreio do meu alazo, Berrante na mo no meio da boiada
E F#
Abracei meu lao velho companheiro, Bateu a saudade, veio o desespero
B7 E
Sentindo o cheiro da poeira da estrada

B7 E B7 E
Estrada que era vermelha de terra, Que o progresso trouxe o asfaltado e cobriu
B7 E B7 E
Estrada que hoje chama rodovia, Estrada onde um dia meu sonho seguiu
A E B7 E
Estrada que antes era boiadeira, Estrada de poeira, de sol, chuva e frio
A E B7 E
Estrada ainda resta um pequeno pedao, A poeira do lao que ainda no saiu

Poeira da estrada s resta saudade


Poeira da cidade a poluio
No se v vaqueiros tocando boiada
Trocaram o cavalo pelo caminho
E quando me bate saudade do campo
Pego a viola e canto a minha solido
No me resta muito aqui na cidade
E quando a tristeza pega de verdade
Eu mato a saudade nas festas de peo

73
Poesia no se Vende
Z Mulato & Cassiano Z Mulato e Cassiano

Tom: E
E |/09-09-09-12-12-10-09h10p9|/7-7-12-12-9-7h9p7|
B |/10-10-10-10-10-10-10-----|/9-9-09-09-9-9----|
G#|--------------------------|------------------|
E |--------------------------|------------------|
B |--------------------------|------------------|

E |7---------------------------7-7-7-7-7----4-7-4|
B |--10-9-7--------------------7-7-7-----/5---5-5|
G#|---------8-7----------------7-7-7-------------|
E |-------------9-7-5-4-2-0-2--------------------|
B |-------------------------4--------------------|

B7 E B7
Poesia no se vende, ento fale em dinheiro
E
No sei se cantar sina, e nem de quem sou herdeiro
E7 A
Mas meu destino cantar, fazer poesia simplria
B7 E B7 E
Semelhante aos passarinhos, s cantar minha glria

A E
No sei quem foi o poeta, que com o n na garganta
B7 E
Disse um dia apaixonado, quem canta seus mal espanta
A E
Vivo distante da fama, nem preciso muito dela
B7 E
Simples como a flor do campo, eu levo essa vida to bela

Cantando coisas to simples, tento fazer minha histria


Sentimentos e paixes, povoam minha memoria
Mas nenhum deles consegue, me roubar a alegria
Se alguma magoa me amola, eu transformo em alegria

Todo dia peo a Deus, que me permita seguir


Levando o meu semelhante, a vontade de sorrir
E se no for pedir demais, deixe que eu morra cantando
Quero despedir sorrindo, porque j nasci chorando

74
Pra te Amar de Vez
Lucas Reis & Thcio Sergio Penna

Tom: B
E |------------------|-------------|
B |4-2-------------7~|-------------|
G#|3-3-3-3-0---------|3---3-3---3--|
E |----4-2-0-2-2/7---|2-2-2-2h4-2-2|
B |----------4-------|--4---------4|

E |----------------------7~|2---2/4-2---|
B |2-2h4p2-2-------------7~|4-4-4/5-4-4~|
G#|3-3-----3-3-3-0-------7~|--3-------3~|
E |----------4-2-0-2-2/7-7~|------------|
B |----------------4-----H-|------------|

B B7 E EB
Moa dos cabelos longos que um dia eu vi
C#m D#m E B
To chegando to de volta e o motivo sabe voc muito bem
C#m D#m E B
Fui s pra sentir saudade o que na verdade eu nem conhecia
C#m D#m E F#
Valeu s me trouxe a certeza que tudo que prezo, deixei por aqui

B F# E B
Prepare o seu corao a sua emoo, que estou voltando
C# F#
Regue as flores de todas as flores no quintal
B F# E B
Bota lenha na fogueira to chegando cedo pra te amar de vez
F# E F#
Fique a beira da varanda que a saudade tanta bem pra la de ms

C#m E C#m E B
Tenho nas mos uma flor, no corao um amor pra te oferecer

Trago a minha viola parceira das canes que fiz, nas noites que passei sem voc

75
Prato do Dia
Tio Carreiro & Pardinho Geraldinho

Tom: A
E |---------------------------------------|
B |---------------------------------------|
G#|----1----------------------------------|
E |--0-------0-2----4-4-4-4-0-2-4-0-------|
B |3------3------2-------------------3-2-0|

Riff:
E |---------------------|
B |--------------------3|
G#|-----------------1---|
E |--0-2-3-2-0---2------|
B |2-----------3--------|

A E7 A
Sobre as margens de uma estrada, uma simples penso existia
A7 D A7 D Riff
A comida era tipo caseiro e frango caipira era o prato do dia
A7 D A
Proprietrio homem de respeito ali trabalhava com sua famlia
E7 A
Cozinheira era sua esposa e a garonete era uma das filhas

Foi chegando naquela penso, um viajante j fora de hora


Foi dizendo para a garonete me traga um frango vou jantar agora
Eu estou bastante atrasado, terminando eu ja vou embora
Ela ento respondeu num sorriso mame ta de p pode crer no demora

Quando ela foi servir a mesa, delicada e com muito bom jeito
Me desculpe mas trouxe uma franga talvez no esteja cozida direito
O viajante foi lhe respondendo talvez franga crua talvez eu aceito
Sendo uma igual a voc, seja a qualquer hora tambm no injeito

Foi saindo de cabea baixa, pra queixar ao seu pai a mocinha


Minha filha mate outra franga, pode temperar, porm no cozinha
Vou levar esta franga na mesa se bem que comigo a conversa curtinha
a coisa que mais eu detesto, ver homem barbado fazendo gracinha

Foi chegando o velho e dizendo,Vim trazer o pedido que fez


Quando o cara tento recusar j se viu na mira de um schimith ingls
O negcio foi limpar o prato quando o proprietrio lhe disse cortez
Ns estamos de portas abertas pra servir a moda que pede o fregus

76
Preto Velho
Tio Carreiro & Pardinho Jesus Belmiro e Tio Carreiro

Tom: E
E |------------------------|
B |-----5--------------5--0|
G#|---3---5-3--------3-----|
E |-----------4----4-------|
B |5-------------5---------|

E B7
Perguntei ao preto velho: por que chora meu heri
E
Preto velho respondeu: meu corao que di!

B7
Eu j fui bom candeeiro, fui carreiro e fui peo,
E
J derrubei muito mato e j lavrei muito cho
E7 A
Com carinho carreguei os filhos do meu patro
E B7 E
Em troca do que fiz s recebi ingratido!

Sempre chamei de senhor quem me tratou a chicote


Livrei o patro de cobra, na hora de dar o bote
Eu sempre fui a madeira e o patro foi o serrote
Sofri mais do que boi velho com canga no cangote!

Da terra eu terei o ouro e o patro fez o seu anel


Mas agora estou velho, e meu patro mais cruel
Esta me mandando embora vou viver de lu em lu,
O que me resta esperar a recompensa do cu!

77
Primeira Chuva
Z Mulato & Cassiano Z Mulato

Tom: A
E |-9-10--9-7-5-4------------|7-6-7-4-5-4-------------------5|
B |10-12-10-9-7-5-5-7-5------|9-8-9-5-7-5-7-5-7-5-------5----|
G#|---------------5-6-5-6-5-3|------------6-5-6-5-6-5--5--5--|
E |---------------------7-5-4|--------------------7-5-5------|
B |--------------------------|-------------------------------|

A E7 A
O meu serto amanheceu sorrindo, a passarada canta tudo que aprendi
E7 B E
At o campo hoje est mais lindo, que enfim na redondeza choveu
A E7 A
A seriema anuncia mais, vejo fumaa branca l na serra
D E7 A E7 A
Enquanto chove um grande sinal que deus ainda abenoa a Terra

B E7 D E7 A
Muito obrigado a meu pai dou graas, pela esperana e pela alegria
E7 A
O sertanejo na terra molhada, j v seguro o po de cada dia

Minha cabocla escolhe a semente, assoviando uma cano de amor


Em devaneio vejo em minha mente, um feijoal de desmanchando em flor
O chego forte de terra molhada, e um trovozinho surdo no horizonte
Dizendo que vai chover mais essa noite e aumentar a aguinha da fonte

muito triste a seca to cruel, ver meu serto cinzento ressequido


Minha esperana conservei bem verde, brotou confiana aqui no meu sentido
Meu corao hoje est em festa, quero plantar muito feijo e milho
Primeira chuva a gente espera igual, o nascimento do primeiro filho

78
Prisioneiro
Ronaldo Viola & Praiano Ronaldo Viola e Vicente Dias

Tom: A
E |------------------------9h10------------|
B |----------------------------9h10--------|
G#|0-5-6-8-8-6-5-3-1---------------9h10----|
E |0-5-7-9-9-7-5-3-2-2-3-5-------------9h10|
B |------------------3-5-7-----------------|

E |----------------------------|
B |----------------------------|
G#|0-3-5-6-10-8-6-5-3-5-0-1-2-3|
E |0-4-5-7-10-9-7-5-4-5-0-2-3-4|
B |----------------------------|

A DA F#m
Ela chegou assim De onde veio no sei
C#m D
Com um carinho nas mos, Abriu meu corao
E
E entrou dentro de mim

A DA F#m
Me amarrou com um beijo Me deixou de castigo
C#m D
Nada pude fazer, Para me defender
E
Do seu doce perigo

A E
Se ela me soltar agora, Eu no vou querer
D E A E
No quero mais liberdade, No quero sofrer
A E
No quero portas abertas, No quero sada
D E A
Quero ser seu prisioneiro, Pro resto da vida

79
Quem Ama no Esquece
Tio Carreiro & Pardinho Tio Carreiro e Carreirinho

Tom: E
E |7-6-7-6-7-119--7-5---5-4-5-4-5--9-7-5-4|
B |9-8-9-8-9-12-10-9-7---7-6-7-6-7-10-9-7-5|
G#|----------------------------------------|
E |----------------------------------------|
B |----------------------------------------|

E |4-3-4-3-4---------------------------|
B |5-4-5-4-5---------------------------|
G#|----------7-5-3-3/5-3-1-0----------8|
E |----------7-5-4-4/5-4-2-0--7h9-7h9--|
B |------------------------------------|

Ou

E |4-3-4-3-4-7-5-4-4/5-4-2-0-----------|
B |5-4-5-4-5---------------------------|
G#|----------7-5-3-3/5-3-1-0----------8|
E |---------------------------7h9-7h9--|
B |------------------------------------|

E B E
Vivo infeliz por no esquecer um velho amor
B
Que marcou no passado, est presente seja aonde for
A E
Queria que ela visse o sofrimento que eu estou
B E
Quem ama no esquece, que esqueceu nunca amou

Arrumei outra para ficar em seu lugar


Para ver se cura a cicatriz que me deixou
Mais no adianta s voc vendo como estou
Quem ama no esquece, que esqueceu nunca amou

Mandei em bora quem estava no seu lugar


A porta est aberta para quando quiser voltar
Se estas com outro o infeliz mesmo sou eu
Por no te esquecer, voc j me esqueceu
Se estas com outro o infeliz mesmo sou eu
Por no te esquecer, voc j me esqueceu

80
Rainha do Meu Destino
Ronaldo Viola & Joo Carvalho Joo Carvalho e Jesus Belmiro

Tom: G
e|-----------10-8------10-10-10-10-10-8------10-10-10-10-10-7----|
B|----7-8-10------10-7------------------10-7------------------8--|
G|7-9-----------------------------------------------------------7|
D|---------------------------------------------------------------|
A|---------------------------------------------------------------|
E|---------------------------------------------------------------|

e|10-10-10-10-10-7-----10-10-10-10-10-8-9----9-8-9--------------------------|
B|-----------------8----------------------10-------10-8-7---7-8-------------|
G|-------------------7------------------------------------9--------7-7h9-4-0|
D|--------------------------------------------------------------------------|
A|--------------------------------------------------------------------------|
E|--------------------------------------------------------------------------|

G C G G C G
Meu bem tem a cor do pecado, cabelos cor de carvo
G F#m Em D7
Olhos negros cor da noite, lbios cor da seduo
C D7
No corpo tem um perfume, a paixo que embriaga
C D7 G G F#m Em D7
Nosso desejo um fogo, abranda mais no apaga

C F C D7 G G F#m Em D7
Sabendo o quanto me quer, idolatro essa mulher, rainha do meu destino
C F C D7 G
Levo a vida sem sofrer, ela s me d prazer isso presente divino

Nosso amor sem limites, mais que amor profundo


Sem mentira e falsidade o maior do mundo
Dou muito valor a vida, vivendo nos braos dela
Ela vale mais que a vida, no quero a vida sem ela

81
Rei da Pecuria
Ronaldo Viola & Praiano Ronaldo Viola e Jesus Belmiro

Tom: A
Intro
E |-------------------------------|--------------------------------
B |-0---0---0---0-------0---0---0-|-0-------0-------0-------0------
G#|------8---7---8/10----7--------|--------------------------------
E |--7-----------------------7---4|--4-7-5---2-5-4---0-4-2------2-0
B |0---0---0---0-------0---0---0--|0-------0-------0-------04-----

Ou

E |------------------------------------
B |-0---0---0--------0-----0----0------
G#|------------------------------------
E |--7---5----2-3-4----0----2-------2-0
B |0---0---0--------0----0----0---4----

E |-----------------------------------------
B |------5-5-5-------7-7-7-5----------------
G#|5-5-5-5-5-5-6-5-6-6-6-6-5-6-5-0-0-0-3-1-3
E |5-5-5-------7-5-7---------7-5-0-0-0-4-2-4
B |-----------------------------------------
Um boiadeiro de porte franzino, Num hotel granfino sozinho entrou

E |---------------------------------------------
B |---------------------------------------------
G#|3-3-3-5-6-6-6-8-6-5-0-0-0-0-0-0-1-1-1-0-0----
E |4-4-4-5-7-7-7-9-7-5-0-0-0-0-0-0-2-2-2-0-0-2-0
B |------------------------------------------4-2
Batendo a poeira do chapu surrado, com modo educado ao gerente falou

E |------------------------------------------------
B |------------------------------------------------
G#|------------0-1-0------------------0-1-0-1-1/3-3
E |2-2-2-0-2-2-0-2-0-2-2--2-2-2-0-2-2-0-2-0-2-2/4-4
B |3-3-3-2-3-3-------3-3--3-3-3-2-3-3--------------
Por favor, eu quero um quarto ajeitado, e bem sossegado com muito espao

E |-----------------------------------------------
B |-----------------------------------------------
G#|3-3-3-5-6-6-6-8-6-5-0-0-0-1-0------------------
E |4-4-4-5-7-7-7-9-7-5-0-0-0-2-0-2-0-----2-2-2-2-0
B |------------------------------3-2-0-0-3-3-3-3-2
Amanha bem cedo agente proseia, a viagem foi feia estou um bagao

O gerente disse com jeito selvagem, s dou hospedagem pra gente descente
Saia vazado e pegue seu trilho, jamais andarilho ser meu cliente
Talvez um albergue noturno o aceite, ou ento se ajeite em alguma cocheira
Porque meu hotel no aceita bagulho, por ser o orgulho da classe hoteleira

82
Para o boiadeiro isso no foi derrota, do cano da bota tirou um papel
Dizendo ao gerente meu comprovante, que no sou andante sou dono do hotel
Comprei com o prdio do seu ex-patro, mas minha paixo lidar na invernada
E todo dinheiro deste investimento, s o pagamento de uma boiada

Na hora o gerente assumiu sua culpa, eu peo desculpa por tudo que fiz
Disse o boiadeiro esta dispensado mal educado e no sabe o que diz
Se quiser emprego e agentar o mato, eu tenho trabalho fora desta rea
No lugar do burro que puxa a moenda da grande fazenda, do rei da pecuria.

83
Sapato 42
Joo Mulato & Douradinho Caetano Erba e Paraso

Tom: E
E |------------------------------
B |5-5-5-5-4-4-2----2/4-4-4-4-2-0
G#|5-5-5-5-3-3-1-1--1/3-3-3-3-1-0
E |--------------2---------------
B |------------------------------
Pensei que fosse bobagem, quando Tio me chamou
E |--------------------------------
B |2-2-2-2-0-0---------------------
G#|1-1-1-1-0-0-1----1/3-3-3-3-3-1-0
E |------------2-2--2/4-4-4-4-4-2-0
B |--------------4-----------------
Pra mostras sapatos velhos, que ele colecionou
E |-----------------------------
B |-----------------------------
G#|1-1-1-1-0-0-----1-1-1-1-0-0--
E |2-2-2-2-0-0-2---2-2-2-2-0-0-2
B |------------4-0-------------4
L na dispensa dos fundos, soluando me falou
E |-----------------------------
B |1-1-1-1-1-0-1-0-0---0--------
G#|2-2-2-2-2-0-2-0-0-1-0-1-0-0-0
E |------------------2---2-0-0-0
B |-----------------------------
Tudo que aqui esta, com minha me comeou
E |---------------------------------------------------
B |----0-2-4-5-4-4-4-4-4/5-2-2/4-4-4-4-0-0-2----------
G#|0-1-0-1-3-5-3-3-3-3-3/5-1-1/3-3-3-3-0-0-1-1-1-1-0-0
E |0-2---------------------------------------2-2-2-0-0
B |---------------------------------------------------
Meus primeiros sapatinhos com amor e com carinho foi minha me que guardou

Quando me entendi por gente, que eu pude raciocinar


Todos meus sapatos velhos continuei a guardar
Aquele l marronzinho pus quando fui me formar
Aquele outro esportivo era s pra passear
Aquele l de pelica quando eu sa na estica, num sbado pra casar

Agora olho os sapatos vem a saudade judia


Pois foi com os sapatinhos que passei melhores dias
Eu era um rei inocente que nem eu mesmo sabia
Pra me ver sempre feliz mame tudo me fazia
Foi quando anos depois eu calcei 42 ali meu sonho morria

O retrato dos meus ps em cada sola estampado


o trilho da minha vida por meus prprios ps pisados
Seu moo tambm meu corpo anda um tanto judiado
o peso dos ps no tempo por quem eu sou pisoteado
Os sapatos que guardei sem saber, colecionei os passos do meu passado

84
Saudade
Tio Carreiro & Pardinho Tio Carreiro e Z Mato

Tom: G
e|-----------------|-----------------|
B|-----------------|-----------------|
G|-----------------|-----------------|
D|----0-0-2-3-3-2/5|2-3-5-5-5-4-4-2-0|
A|2-3-2-2-3-5-5-3/7|3-5-7-7-7-5-5-3-2|
E|3-5--------------|-----------------|

e|/7-7-7-7-7-7-7/10-10-10-10--8--8--8-5-5-3-2-3-2--------|
B|/8-8-8-8-8-8-8/12-12-12-12-10-10-10-7-7-5-3-5-3-5-3-1-0|
G|------------------------------------------------5-4-2-0|
D|-------------------------------------------------------|
A|-------------------------------------------------------|
E|-------------------------------------------------------|

e|-----------------|
B|-----------------|
G|----------------0|
D|0--------------0-|
A|---3-2---0----2--|
E|-------------3---|

G D G D G
Saudade palavra rica, Que martiriza e fica
D
Dentro de um corao, Da felicidade morta
G
Que a saudade conforta, Trazida de uma paixo

D G D G
Saudade tenho de algum, Uma saudade que vem
C D G
De uma distancia sem fim, Ser que ela tambm
D C D G
Na falta de um outro algum, Sente saudade de mim

Eu vivo sempre pensando, Meus olhos vivem chorando


No tenho felicidade, Estou morrendo aos poucos
E o que me deixa mais louco, a maldita saudade

85
Ser Feio No Defeito
Craveiro & Cravinho Craveiro e Cezar

Tom: E

E |------------------------------------
B |------------------------------------
G#|1/3-3-3-3-3-1-1-0-0--0-1-1-1-0-0----
E |2/4-4-4-4-4-2-2-0-0--0-2-2-2-0-0-2-2
B |---------------------------------4-4
L no bairro a onde eu moro, tem uma mulher tagarela
E |--------------------------------
B |--------------------------------
G#|--------------------------------
E |2-2-2-2-0-0------2-2-2-2-0-0----
B |4-4-4-4-2-2-0-0--4-4-4-4-2-2-0-0
No consegue ficar queta, tem a lngua de tramela
E |--------------------------------
B |2-2-2-0---0-2-2--4-4-4-2-0---0-0
G#|1-1-1-0-1-0-1-1--3-3-3-1-0-1-0-0
E |--------2------------------2----
B |--------------------------------
Ela me chamou de feio, de nariz de apagar vela
E |--------------------------------------
B |4-4/5-5-4-2-0-4-4--2-0---2-2-0-----0-0
G#|3-3/5-5-3-1-0-3-3--1-0-1-1-1-0-1-0-0-0
E |-----------------------2-------2-0----
B |--------------------------------------
Mais viver bem eu consigo pois eu carrego um gosto comigo
E |-----------------
B |-----------------
G#|1-0---2-2-0---0-0
E |2-0-2-2-2-0-2-0-0
B |----4-------4----
Posso at ser feio mais no so dela

Bate com a lngua no dente, mas prela eu no do pelota


Pressa mulher faladeira to servindo de chacota
Feio tambm tem mulher cada um tem sua cota
Por isso eu falo e sustento tudo que agente faz tem um pagamento
E eu volto o troco conforme a nota

Dela me chamar de feio pouco importo eu no ligo


Com toda minha feiura consegui ter meu abrigo
Quem desgava quer comprar verdade o que eu lhe digo
Ser feio no defeito quem ama gosta de qualquer jeito
um ditado certo que vem dos antigos

Deus me fez um homem feio pra no desmentir a raa


Sou feliz vivendo assim feiura no me embaraa
Nenhum bonito passou aonde esse feio passa
Sou feio mais so enjoado vale muito mais um feio engraado
Do que mais de sem bonito sem graa

86
Serto Ainda Serto
Z Mulato & Cassiano Z Mulato

Tom: E
E |----------2--5---9--2/5--/11-11-11-11-11-11-4-4-5-5-11-11--------
B |-0-------4--7--10--4-/7--/12-12-12-12-12-12-5-5-7-7-12-12--------
G#|-----------------------------------------------------------------
E |---2/7-7--------------------------------------------------------0
B |0---------------------------------------------------------0-2-4-

E E7 A E7 A
Um gadinho curraleiro pastando l no varjo
B E
L na vazante do rio, roa de arroz e feijo
B7
O meieiro ta contente com o vio da plantao
E B7 E
Hora canta Hora assovia o trecho de uma cano
E7 A B E B7 E
Tambm fico embevecido pois, nem tudo esta perdido serto ainda serto

Passarada ainda canta Curi, Currupio


Trinca-ferro, Tangara, Sabi Saracuro
Assanhao faz regencia canta no p de mamo
Na capoira feixada canta o principe azulo
O canto de uma Perdiz me faz suspirar feliz, serto ainda serto

Nosso serto sobrevive apesar da agresso


Da ganancia dos humanos que destroem nosso cho
Mas c onde a motossera e o trator nunca viro
No tendo ouro nem prata que ao meu ver perdio
Aqui a me natureza renova sua beleza, serto ainda serto

Aqui no meu p de serra finquei o meu corao


Os esteios fiz de paz, pus poesia no eito
Os baldrames pura f, e os barrotes de iluso
Cobri tudo de esperana, e desafio a solido
Neste mundo de meu Deus vou vivendo os dias meus, serto ainda serto

87
Serto Vazio
Marcos Violeiro & Cleiton Torres Toninho, Tio Carreiro e Arlindo Rosas

Tom: G
e|---7-10-8-7----------------8-10-7-10-8----8-7--|
B|/8----------10-10-8-7--/10-------------10-----8|
G|-----------------------------------------------|
D|-----------------------------------------------|
A|-----------------------------------------------|
E|-----------------------------------------------|

e|---7-10-8-7-----------10-----8----7-----5-----3|
B|/8----------10-10-8-7----7-5--5----------------|
G|--------------------------------7---7-5----5--4|
D|-----------------------------------------------|
A|-----------------------------------------------|
E|-----------------------------------------------|

e|--------|----------|
B|--------|----------|
G|--------|----------|
D|0-------|----------|
A|--3-0---|4/5-------|
E|------3-|----2-5-3-|

G D C D G
Serto vazio gigante adormecido, corao ferido por golpes fatais
D C D G
Ninho sem ave jardim sem flor, comeo de dor final de uma paz
D G
No teu recanto cheio de tristeza, chora a natureza o riacho murmura
D D7 G
Vivo na cidade sou um pobre coitado longe do roado colhendo amargura

Os donos do mundo com golpes vibrantes, meu serto gigante fez adormecer
Velhas tradies caram pra sempre, ficando somente a brisa a gemer
Descendo serra entre verde mato, solua o regato despertando a fonte
At a lua que era risonha, parece tristonha l no horizonte

Serto vazio devagar vai morrendo, em silencio sofrendo a destruio


Igual tecido desfeito em retalho, gotas de orvalho sumindo no cho
Lagrimas de sangue derramando eu vejo, vrios sertanejos de almas feridas
Meu serto vazio dorme soluando acorda chorando nas manhas sem vida

Aqui bem distante um grande desgosto, sentindo no rosto meu pranto cair
Serto vazio um reinado sem rei, teu nome gritarei pra cidade ouvir
As grandes cidades sem agricultura, ningum segura sua marcha r
Querido serto poderosa raiz sem voc meu pais no aguenta de p

88
Sistema Bruto
Joo Carreiro & Capataz Joo Carreiro

Tom: E
E |-----------------------------------------------------------------[12]
B |-----------------------------------------------------------------[12]
G#|----------------/8-7------/12-10-----------7--9h10---9h10---9h10-[12]
E |4h5-5---4-5-6-7-----5-6-7--------12-7-9-10--------11-----11------[12]
B |------5----------------------------------------------------------[12]

E
Nosso povo sertanejo sacudiu a capital
B7 E B7
Viola e violo atrao nacional
A AEA
Populao da cidade hoje gosta e admira
B7 E
Vejo o povo da alta no nosso estilo caipira

A B7
Amigo, preste ateno talento nato e no se faz
E B7 A
o nosso sistema bruto, Joo Carreiro e Capataz

Minha viola caipira tem as 10 cordas de ao


De janeiro a janeiro ela tine nos meus braos
Nunca tive professor pra fazer o que eu fao
Eu canto desde menino e nunca tive embarao

Meu pagode violento igual s ondas do mar


Quando passa um vem outro pra ocupa o seu lugar
Minha viola venenosa e s espalha alegria
Tristeza no passa perto porque se contagia

Num castelo sou ou rei, no mar sou um tubaro


No truco eu sou um zap, e na selva sou um leo
Na estrada sou uma carreta, e no ar sou um avio
No brao desta viola sou um violeiro campeo

89
Sonho de Caboclo
Joo Carreiro & Capataz Tio do Carro e Ademar Braga

Tom: A
E |-----------------------------------------------------
B |2-0-----0--------------------------------0-5-3-2--2-0
G#|1-0-1-0-0-1-0---1-0-----0h1-0-0h1-0--0-1-0-5-3-1--1-0 A
E |----2-0---2-0-2-2-0-2-0-0h2-0-0h2-0--0-2-------------
B |--------------3-----3-2------------------------------

A E7
Fiz um poema com palavras to bonitas, Caprichei bem na escrita, tambm fiz um cano
Bm E7 A
Fui no jardim, colhi as flores mais belas, Margaridas amarelas e a rosa branca em boto
A7 D
Com muito gosto arrumei nossa casinha, Da sala at a cozinha e carpi todo o quintal
A E7 A
Rocei o pasto e consertei a porteira, Enfeitei a casa inteira como se fosse o Natal

L na varanda amarrei de novo a rede


Pendurei bem na parede o quadro da Santa Ceia
No cho da sala todo de terra batida
Dei uma boa varrida e no ficou um gro de areia

Na nossa cama pus a colcha de piqu


Com as beiradas de croch que voc fez tudo a mo
Troquei as folhas com capricho e muito esmero
As penas do travesseiro e palhas novas no colcho

Chegou o dia que voc ia voltar


Eu cheguei at chorar de tanta felicidade
Levantei cedo e me arrumei com muito zelo
Reparti bem o cabelo que nem gente da cidade

Botina nova que me apertava um pouco


Cala de Brim arranca-toco e bigode bem aparado
De leno branco, camisa preta de lista
Eu parecia um artista daqueles bem afamado

E bem na hora que passava a jardineira


Me deu uma tremedeira quando a porteira bateu
Sa correndo l pras bandas da estrada
Pra ver a sua chegada e voc no apareceu

A jardineira foi sumindo no estrado


Levando a minha iluso e a tristeza que ficou
Foi s um sonho, sentei na cama chorando
Hoje est fazendo um ano que voc me abandonou

90
Tarde no Serto
Z Mulato & Cassiano Z Mulato

Tom: E
E |/7-7-7-7-5--------/9-9-7---------9-7-5------9--8-7-h9p7|
B |-----------7-------------9-------------7---10-10-9-----|
G#|-------------7-5-----------8---8---------7-------------|
E |-----------------------------7-------------------------|
B |-------------------------------------------------------|

E |2-2-4-5--9-7-4-4/7-7-7h9p7--12-12-12-11-11-9-7|
B |4-4-5-7-10-9-5-5/9-9-9-------9--9--9--7--7-5-4|
G#|----------------------------------------------|
E |----------------------------------------------|
B |----------------------------------------------|

B7 E
Cai a tarde no serto
E7 A
Logo a noite vai chegar
Am E
Homem larga do arado

Pega a foice e o machado


A B7 E
Vai pro rancho descansar

Sua choa no groto


Desafia a solido, doendo
Sabi o seu vizinho
Guardio do seu ranchinho
Canta uma paixo ter

Morre o sol avermelhado


Sobe a sobra no espigo
Passarada em sinfonia
Num coral de alegria
Inocente orquestrao

S quem sofre o caboclo


A saudade pouco a pouco amola
Solido traz nostalgia
Esperando novo dia
Desabafa na viola

91
Tudo Corre
Brenno Reis & Marco Viola Delley, Antnio Feitosa e Hlio
Gonalves

Tom: E

E |[12]-------------------------------------------
B |[12]-------------------------------------------
G#|[12]----7-----------5-----------3--------------
E |[12]7-9---9-7-5-5-7---7-5-4-4-5---5-4-5-4-5-5/7
B |[12]-------------------------------------------

Abafado
|----------------------------------------|

E |-----------------------------------------
B |-----------------------------------------
G#|----7-----------5-----------3------------
E |7-9---9-7-5-5-7---7-5-4-4-5---5-4-5-4-2-0
B |-----------------------------------------

E B7
Avio corre no ar e a gua corre de rio abaixo
A E
O dinheiro no meu bolso esta correndo de mao em mao
A B7
Corro o dedo na viola de corda em corda de trao em trao
E
Minha fama tambm corre por toda a parte por onde eu passo

Junto com meu companheiro corro no estado de fora a fora


Dentro da minha cabea sempre correu a boa memria
Corro o lpis no papel e j sai moda na mesma hora
Nunca corri de campeo nunca embaracei com minha viola

Nas festas que vou chegando o povo corre pra me encontrar


Onde eu canto meu pagode as meninas correm pra me abraar
Corro de mulher casada pra minha vida no complicar
Um dia tambm corri pra ver meu amor do lado de l

Eu atravessei o rio correndo tranquilo em minha canoa


Meu bem corre pros meus braos com meus carinhos sorri a toa
Tem violeiro por ai que corre de perto e de longe acoa
Meu pagode corre a praa o ano inteiro e ningum enjoa

92
Um Novo Dia
Lucas Reis & Thcio Lucas Reis e Gabriel Dias

Tom: D
E |2/5-5-5-5-2h3p2|2/09-09-09-10/12-12-10-09|2---2---2---2----3---3---5/7|
B |3/7-7-7-7-3----|3/10-10-10-12/14-14-12-10|-3---3---3---3----3---3-----|
G#|---------------|-------------------------|--3---3---3---3----3---3----|
E |---------------|-------------------------|----------------------------|
B |---------------|-------------------------|----------------------------|

D A
No sei se foi sorte ou azar, que o meu destino se cruzou com o seu
Bm G
S sei que meu corao sofre, lembrando tudo que a gente viveu
D A
Eu passo a noite acordado, dividindo espao com a solido
Bm G
Batendo forte no peito, to descompassado o meu corao

Bm
Eu toda noite me lembro da felicidade das juras de amor
A G D
Do seu olhar to bonito, sinto nos meus braos ainda o calor
G Bm
Nesse seu corpo moreno de pele queimada dos raios do sol
A A7 D
Sinto ainda seu cheiro em nosso lenol

D A Bm G
Um novo dia vai amanhecer, outra noite chegar e eu no vou te esquecer
D A Bm G A D
Minha paixo se voc no voltar vou ter sempre a viola chorando pra me consolar

93
Um Restinho de Voc
Fernando & Osmair Joel Marques e Ivone Ribeiro

Tom: C
E |--------7-08-10-08-7-5-5/08--5-7-08-7-5-3-3/7-|
B |--6-7-8-8-10-12-10-8-6-6/10--6-8-10-8-6-5-5/8-|
G#|--7-8-9---------------------------------------|
E |3-5-6-7---------------------------------------|
B |5-6-7-8---------------------------------------|

E |3-5-7-5-3-1-1/5--1-3-5-3-1-3---|
B |5-6-8-6-5-3-3/6--3-5-6-5-3-5-5-|
G#|-----------------------------4-|
E |-------------------------------|
B |-------------------------------|

C G G7 Am
To sozinho em nossa casa, sem saber o que fazer
F G F
Procurando em qualquer canto, qualquer coisa que me traga
C
Um restinho de voc
C G E7 Am
Nos lenis da nossa cama, j tentei sentir seu cheiro
F G F
J tentei tocar seu rosto, num delrio quase louco
C
De beijar seu travesseiro
D G
To sofrendo aqui sozinho, corpo queima feito brasa
F C G
Foi to grande o seu carinho, deve haver algum restinho
C
De voc por esta casa

Pelos bolsos da camisa, eu procuro o seu retrato


Pois assim talvez consiga, te encontrar por um momento
Numa foto em 3x4
No casaco o seu perfume, na agenda algum bilhete
Ou um fio do seu cabelo, que pudesse estar grudado
Em um simples sabonete
To sofrendo aqui sozinho, corpo queima feito brasa
Foi to grande o seu carinho, deve haver algum restinho
De voc por esta casa

No sei aonde te encontrar, no sei aonde vou fugir de tanta solido


Por mais que eu tente te buscar, em cada canto em qualquer lugar
Eu so consigo te encontrar, no corao

94
Um Sonho com Tio Carreiro
Luiz Mazza & Luciano
Tom: E
E |0--0-0---0---0-0-0-0---0-0-0-0---0-0-0-0-0---0-0---0---0-0-0-0-0-0
B |0----------------------------------------------------------------0
G#|2-2-3-3/5-5/6-5-3-2---2-3-5-6-6/9-6-5-3-2---2-3-3/5-5/6-5-3-2-2--2
E |0----------------------------------------------------------------0
B |------------------------------------------------------------------

Numa noite enluarada defronte uma encruzilhada


Eu seguia com a viola ponteando
Quando de repente surgiu na minha frente, o encardido
E murmurou no meu ouvido dizendo, pra um desafio to te chamando

Numa estrada de cho vermelho com minha viola nos braos


Eu caminhava tocando a lua guiava meus passos
Na curva da Gameleira eu me vi num embarao
E |-------------------------------
B |--0-------0--------0-----------
G#|------------------------------3
E |--------2-------------------2--
B |0---2-4------4-2-4----2-0-4----

Passava da Meia noite no me lembro bem a hora


O meu corpo arrepiou, corao pulou pra fora
Um homem de capa preta pediu a minha viola

E |-------------
B |----7-9-7----
G#|7-8-7-8-7-8-7
E |7-9-------9-7
B |-------------

O sujeito foi falando sem levantar a cartola


Ou vence o meu desafio ou levo sua alma embora
Saia fogo em seus dedos quando fazia o ponteado
E |----------------------------------[12]
B |---0---------0---0-----0----0-----[12]
G#|-8---7----10---3-----8----1----7--[12]
E |9---7---11----4-----9----2----7---[12]
B |----------------------------------[12]

Era difcil vencer o desafio do diabo


Do medo eu tirei fora rezei e fui ajudado
E |-------------------------------
B |--0-------0--------0-----------
G#|------------------------------3
E |--------2-------------------2--
B |0---2-4------4-2-4----2-0-4----

95
Uma luz desceu do cu, o co fugiu assustado
Quando no meio da luz ouviu esse ponteado
E |-11-11--0-2--0-5--0-4--0-7--0-2--0-5--0-4--0-7--0- 9--0-11--0-12
B |-12-12--0-4--0-7--0-5--0-9--0-4--0-7--0-5--0-9--0-10--0-12--0- 9
G#|----------------------------------------------------------------
E |----------------------------------------------------------------
B |0-----0----0----0----0----0----0----0----0----0----0------0-----

Pra te ajudar violeiro por Deus fui designado


Aquele vulto falou pode ficar sossegado
Quando perguntei seu nome eu fiquei lisogiado
E |-------------------------------
B |--0-------0--------0-----------
G#|------------------------------3
E |--------2-------------------2--
B |0---2-4------4-2-4----2-0-4----

Respondeu sou Tio Carreiro e vou estar sempre do seu lado

A terra tremeu e o cho abriu


E o homem de capa preta naquele instante sumiu,
Sumiu tambm naquele instante
O maior dos violeiros e tudo no passou de um sonho
que eu tive com grande mestre Tio Carreiro

Quem tem um anjo da guarda esta sempre protegido


a providencia divina que nos livra do perigo
Sempre salva o inocente da trapaa do inimigo
por isso que eu canto e conto o que aconteceu comigo

96
Universo Caipira
Goiano & Paranaense Goiano

Tom: B
E |/11-----------------12-11-9-6-|-------------------------|
B |----12------------------------|/9-7---------------------|
G#|-------10-----------12-10-8-5-|/8-7-8-7-8---------------|
E |----------11----11------------|-----9-7-9-2h4-2-0-2-----|
B |-------------12---------------|-------------------4-2-0-|

OU

E |/11-7-----------12-11-9-6-|-------------------------|
B |------7-------------------|/9-7---------------------|
G#|--------7----7--12-10-8-5-|/8-7-8-7-8---------------|
E |----------7---------------|-----9-7-9-2h4-2-0-2-----|
B |--------------------------|-------------------4-2-0-|

E |[12]---------[12]---------------|-------------|
B |----[12]----------[7]-----------|-------------|
G#|--------[12]----------[7]-------|/2-2/3/5-8-7-|
E |-------------------------[7]----|/2-2/4/6-9-7-|
B |----------------------------[7]-|-------------|

B F#7 B
Neste meu universo caipira desde cedo comecei cantar
F#7 B
Foi at no lamento de um peo, que um berrante pude repicar
F#7 B
Estudando na escola da vida, tirei dez no vestibular
F#7 B
Vi que todas as marcas de amor, so difceis de cicatrizar
B7 E F#7 B
Fugindo da solido mantendo a tradio, sempre vou estar

Sou caboclo e sou feliz, roceiro no interior


Gosto de um franguinho na panela, pescaria tambm dou valor
Quem ouve o doutor e o caipira, ou at caipira lavrador
Valoriza o caboclo do mato e o pequeno mdio agricultor
Pela honra de glorificar, eu sempre vou cantar, o poder do criador

Minha viola a mesma de sempre, meu estilo nunca vou mudar


S mudei o assunto das letras, nosso mestre preciso louvar
Cururu, Querumana e Pagode, pro povo sempre vou cantar
Pros fs que me admiram, meu respeito nunca vai faltar
Moda boa sem apelao se no tem palavro, sempre vou gravar

97
Vale Verde
Z Mulato & Cassiano Z Mulato

Tom: D
E |-2/3--3/5--5/8*-12-8------12-8----------7-7-7-10-7-|
B |3-/5-5-/7-7----------10-7------10-7-3/8-8-8-8-8---8|
G#|---------------------------------------------------|
E |---------------------------------------------------|
B |---------------------------------------------------|

E |6*-10*-12*-14*-5-5/7-7-5-3-3/5-2|-----------|
B |---------------7-7/8-8-7-5-5/7-3|----------3|
G#|--------------------------------|6-3-------1|
E |--------------------------------|----5-2-0-2|
B |--------------------------------|----------3|

Venho de terra distante, onde o cu mais azul


Sinto estrelas cintilante, me guiando para o sul
Beberei agua da fonte, limpa e pura verdadeira
Vou transpor as cordilheiras, seguindo ordem do corao
E ao chegar ao vale verde, matarei a minha cede, soltando as rdeas da emoo

Erguerei o meu ranchinho, l na boca da mata


Bem defronte uma cascata, ali vai ser o meu ninho
Cantarei nas madrugadas, serei mais um passarinho
Livre, livre, pra voar

Viverei num paraso, terei tudo que preciso, para ser feliz

98
Viola Divina
Tio Carreiro & Pardinho Tio Carreiro e Lourival dos Santos

Tom: E
E |/12-12-12-12-12-12-11/12-11-7-5-4-2-[7]/11-11-11-11-11-11-11/12-11-7-5-2/4
B |/14-14-14-14-14-14-12/14-12-9-7-5-4-[7]/12-12-12-12-12-12-12/14-12-9-7-4/5
G#|------------------------------------[7]-----------------------------------
E |------------------------------------[7]-----------------------------------
B |------------------0-----0--0-----------------------------0-----0--0-0-----

E B7
Viola minha viola cavalete de pau preto
A E
Morro com voc nos braos de joelhos lhe prometo
A B7
Viola minha viola de jacarand e canela

Na alegria ou na tristeza vivo abraado nela


E B7 E
Minha viola divina eu ganho a vida com ela

O quadro da santa ceia 12 apstolo tem


Minha viola no santa, por isso, 10 cordas tem
12 meses tem o ano, 12 horas tem o dia
12 horas tem a noite, essa noite de alegria
Essa viola divina, j me deu o que eu queria

No aprendi fazer guerra na escola de cantoria


Fazer guerra muito fcil quero ver fazer poesia
Com essa viola divina um pedido eu vou fazer
Para Deus matar a morte pro cantador no morrer
Enquanto existir viola cantador tem que viver

Se at o ano trs mil, se uma viola s existir


Garanto vai ser a minha que no parou de tinir
Um cantador sem viola na carreira nada tem
Minha viola divina das mos de Deus que vem
Quem no gosta de viola no gosta de nis tambm

99
Viola Pagodeira
Ronaldo Viola & Joo Carvalho Ronaldo Viola e Menino Cellis

Tom: E
E |------------------------------------------------------------------------
B |-0----------------------0------0----0---------------0-------------------
G#|----5-3p0-----------------------------------------------5-3p0--------5-3
E |--4-------4-0-4-5-5/7-------5-4--2---------0-2-3-4----4--------4-0-4----
B |5----------------------0--4--------0---2-4---------5--------------------

E |-----------------------------------------------------------
B |-0------------------0----0-----0----0------0---0------0----
G#|----5-3-5-5/7--7-8-7---------------------------------------
E |--4------------------9-7--7-9-7--5-4--4-7-5-4-2--2-5-4--2-0
B |5----------------------------------------------------------

E B7
Minha viola pagodeira minha fonte de poesia
E
Rainha das madrugadas em noites de canturia
B7
Ela sempre me acompanha chega a gemer nos meus braos
E
A viola que ponteio tem as dez cordas de ao

Onde tem som de viola e o cantador no compasso


A alegria permanente tristeza no tem espao
Igual os dez mandamentos da escritura sagrada
A beleza do ponteio por Deus abenoada

nos ps do catireiro no verbo no repentista


no verso do poeta e na ginga do sambista
Vem no sangue do caboclo a beleza da cano
a f do nosso povo bandeira da tradio

Minha viola pagodeira minha oitava maravilha


Tendo voc nos meus braos minha estrela eu sei que brilha
Encostada no meu peito derrubo qualquer barreira
Defendendo as razes dessa terra brasileira

100
Viola Vermelha
Tio Carreiro & Pardinho Tio Carreiro e Jesus Belmiro

Tom: B

E |---------------------------------
B |--7------------------------------
G#|7-7-8-7-5-3-2-2-2-3-2-2-2-2-0----
E |7---9-7-6-4-2-2-2-4-2-2-2-2-0-2-2
B |------------------------------4-4
Esta viola vermelha, cor de bandeira de guerra
E |-------------------------------
B |-------------------------------
G#|2-2-2-2------------------------
E |2-2-2-2-2-0-------0-2-4-2-2-2-2
B |--------4-2-0-0-0-2-4-5-4-4-4-4
Cor de sangue de caboclo dor de poeira de terra
E |---------------------------------
B |---------------------------------
G#|---------------------------------
E |--------2-0-0-0---------0-0------
B |0-0-0-0-4-2-2-2-0-0-0-0-2-2-0-0-0
Foi a fiel companheira de uma longa trajetria
E |---------------------------------
B |---------------------------------
G#|--0-0-0-0---0-0------------------
E |--0-0-0-0-2-0-0-----2-2-2-2-0-2-2
B |0---------4-----0-0-4-4-4-4-2-4-4
De um artista to querido que deixou o nome na historia
E |-----------------------------
B |-----------------------------
G#|----------------2-2-2-3-2-2-2
E |0-0-0-0-2-0-0-0-2-2-2-4-2-2-2
B |2-2-2-2-4-2-2-2--------------
Um canhoteiro de fibra um exemplo de violeiro
E |---------------------------------
B |---------------------------------
G#|2-2/7-7-7-7-7-5-5-5-5-3-3-3-3-2--
E |2-2/7-7-7-7-7-6-6-6-6-4-4-4-4-2-2
B |--------------------------------4
Com talento e traquejo do progresso sertanejo
E |-----------------
B |-----------------
G#|------0----------
E |------0---2------
B |0-2-4---0-4-2/4~~
Ele foi o pioneiro

Esta viola vermelha j fez tristeza acabar


Fez muitos lbios sorri, fez plateias admirar
Mais um dia entristeceu no silencio da saudade
Quando pra sempre seu dono partiu para eternidade
Ela chora apaixonada que at meu corpo arrepia
Da um gemido em cada corda quando comigo recorda
Esta imortal melodia

Obs: entre estas duas estrofes tocada um pedao da musica boiada cuiabana.

101
Esta viola vermelha que tanto alegrou o povo
Defendendo o que nosso, esta na luta de novo
Voltou a ser aplaudida como foi antigamente
O seu passado de gloria revivendo no presente
Florncio descansa em paz, por que essa viola sua
Voltou para o p do eito encostada no meu peito
Sua luta continua

E |-------------------------------
B |4-4-4-4-2-2-2---0-0------------
G#|3-3-3-3-1-1-1-0-0-0-1-1/3---0-0
E |--------------0-----2-2/4---0-0
B |--------------------------0----
Esta viola vermelha esta chorando comigo

E |2------------------------------
B |2------------------------------
G#|2---0-2-3-3-3-2----------------
E |2-2-0-2-4-4-4-2-2-------0------
B |2-4-------------4-0-0-0-2-0-0-0
Ela perdeu o seu dono eu perdi um grande amigo

102
Violeiro Moderno
Lorito & Loreto Orlando Martins, Vanucchi e Lorito

Tom: E
E |--------------------------------------------------[12]
B |/9--9-7-5-4--/7--7-5-4-2--/5--5-4-2-0---2-3-4-0---[12]
G#|/8-8--7-5-3--/7-7--5-3-1--/5-5--3-1-0---1-2-3-0---[12]
E |------------------------------------------------2-[12]
B |------------------------------------------------4-[12]

E
O tal violeiro moderno, quando canta se rebola
B7
J esto mostrando as costas, usam camisa sem gola
A B7 A B7
Alguns j esto usando na orelha brinco de argola
E
Qualquer dia esses caras vo cantar de camisola
F# B7 F# B7
Para nossos filho em casa uma pssima escola
E A B7 E
Mas minha casa eu protejo, disco desse sertanejo, no toca em minha vitrola

Esses falsos sertanejos para se ouvir no da p


Deixa o povo duvidoso ser se ou no
De fato a pinta deles no pra se botar f
As modas so sempre as mesmas s traio de mulher
Se jugam evoludos cada um pensa o que quer
Mas na minha opinio se isso for evoluo ela andou de marca r

Esses violeiros modernos com tristeza que digo


Para no ouvir suas modas, nem o radio j no ligo
Porque esses cantadores do serto so inimigos
Pois lutam pra derrubar o nosso costume antigo
Mas quem trai nosso povo tem que receber castigo
Pois vamos ficar de olho pra acabar com esse joio que esta sujando o trigo

103

Você também pode gostar