Você está na página 1de 2

Amado Batista

Meu Ex-Amor
B E B A E
E|-------------------------------------------------------------------|
B|-------------------------------------------------------------------|
G|-------------------------------------------------------------------|
D|-----------------------------------2-1-------------------1-2-------|
A|-2-2/4-2--------2-2/4-2---2-------2---2-2/4-2-0--2-4-2-4---------2-|
E|---------0-4------------4---4-2------------------------------4-5---|

E
Eu tive um amor
B
amor to bonito
A B
Daqueles que matam
E
Com sabor de saudade
E
Meu ex-amor
B
Tem coisas que a gente no esquece
A B
Mas voc no merece
E E7
Tanta dor
A
Foi bonito demais
E
Mas eu estou sozinho
A
Foi rico de amor
B E
Hoje estou to s

B E B A E
E|-------------------------------------------------------------------|
B|-------------------------------------------------------------------|
G|-------------------------------------------------------------------|
D|-----------------------------------2-1-------------------1-2-------|
A|-2-2/4-2--------2-2/4-2---2-------2---2-2/4-2-0--2-4-2-4---------2-|
E|---------0-4------------4---4-2------------------------------4-5---|

E
Eu tive um amor
B
Amor to bonito
A B
Daqueles que matam
E
Com sabor de saudade
E
Meu ex-amor
B
Tem coisas que a gente no esquece
A B
Mas voc no merece
E E7
Tanta dor
A
Foi bonito demais
E
Mas eu estou sozinho
A
Foi rico de amor
B E
Hoje estou to s

SOLO FINAL:

E|-------------------------------------------------------------------|
B|-------------------------------------------------------------------|
G|-------------------------------------------------------------------|
D|-------------------------------------------------------------------|
A|-2--2h4--2---------------------------------------------------------|
E|----------------4---2---0------------------------------------------|