Você está na página 1de 3

Cazuza - Pro Dia Nascer Feliz

(intro) A F/A D/A E/A D/A

A D/A
Todo dia a insnia
F/A
Me convence que o cu
D A
Faz tudo ficar infini...to
A D/A
E que a solido
F/A
pretenso de quem fica
D A
Escondido fazendo fi...ta
G F
Todo dia tem a hora da sesso coruja, hum...
G D
S entende quem namora
F
Agora vo'bora
F A
Estamos bem por um triz
G D
Pro dia nascer feliz, hum...
G D
Pro dia nascer feliz
G D
O mundo inteiro acordar
F A
E a gente dormir, dormir
G D
Pro dia nascer feliz
G D
Ah! Essa a vida que eu quis
G D
O mundo inteiro acordar
F A
E a gente dormir...

A D/A
Todo dia dia
F/A
E tudo em nome do amor
D A
Ah! Essa a vida que eu quis
D/A
Procurando vaga
F/A
Uma hora aqui, a outra ali
D A
No vai e vem dos teus quadris
G F
Nadando contra a corrente
G F
S pra exercitar...
G F
Todo o msculo que sente
A
Me d de presente o teu bis
G D
Pro dia nascer feliz, !
G D
Pro dia nascer feliz
G D
O mundo inteiro acordar
F A
E a gente dormir, dormir
G D
Pro dia nascer feliz, !
G D
Pro dia nascer feliz
G D
O mundo inteiro acordar
F A
E a gente dormir, dormir
(A)
Oh oh oh oh
Oh oh oh oh
Oh oh oh oh...

A D/A
Todo dia dia
F/A
E tudo em nome do amor
D A
Essa a vida que eu quis
D/A
Procurando vaga
F/A
Uma hora aqui, a outra ali
D A
No vai e vem dos teus quadris
G F
Nadando contra a corrente
G F
S pra exercitar
G F
Todo o msculo que sente
A
Me d de presente o teu bis
G D
Pro dia nascer feliz
G D
Pro dia nascer feliz, hum...
G D
O mundo inteiro acordar
F A
E a gente dormir, dormir
G D
Pro dia nascer feliz
G D
Ah! Essa a vida que eu quis
G D
O mundo inteiro acordar
F A
E a gente dormir...
(solo)

E|----12--------------------------------------------------|
B|---12b....----12p10-----10~-----------------------------|
G|---------------------11---------------------------------|
D|-----------------------------------------7----9b10-7~---|
A|-------------------------------------7-9---9------------|
E|-----------------------------------9--------------------|

E|--------------------------------------------------------|
B|--------------------------------------------------------|
G|-9b10-9-7-6--9x-7x-6x-7x-9x-7x-6x---7b8-6~--------------|
D|--------------------------------------------------------|
A|--------------------------------------------------------|
E|--------------------------------------------------------|

E|---------------------------------------------------------------------------
16b18~~~---|
B|-----------------------------11--12b13--12-10---14-17-14-17-14-1717-14-
17------------|
G|---------------------10--
12-----------------------------------------------------------|
D|-----------------
11-------------------------------------------------------------------|
A|--------------
9-----------------------------------------------------------------------|
E|-7b--5~--
7/9--------------------------------------------------------------------------|

----------------- Acordes -----------------


A = X 0 2 2 2 0
D = X X 0 2 3 2
D/A = X 0 X 2 3 2
E/A = X 0 2 1 0 0
F = 1 3 3 2 1 1
F/A = 5 X 3 5 6 X
G = 3 2 0 0 0 3

Interesses relacionados