Você está na página 1de 3

Sozinho

CaetanoVeloso
Composio:Peninha

Tom: G

(intro) Em Em/D A7/C# A7


F7M Em7(9) G/A S abro pra voc mais ningum
e|----0---0-----0-------------2--2---3-------
B|----1---1-------1-----------3--3---2---3--- (passagem 1)
G|----2---2---------2---------0--0---0---4---
D|---------------------------------------5--- Bm F#m7 G7M
A|--------------------------2----------0---0- Porque voc me esquece e some
E|-1--------1-1-------1---0------------------ Bm F#m7 Bm/E
E se eu me interessar por algum
e|-----------| Bm F#m7 G7M
B|3---3---3--| E se ela de repente me ganha
G|4---4---4--|
D|5---5---5--| D6(9) A7/C#
A|--0---0----| Quando a gente gosta claro que a gente
E|-----------| G7M
cuida
Em Em/D C
D6(9) A7/C# (B9 Bm) Bm Fala que me ama s que da boca pra fora
s vezes no silncio da noite D6(9) A7/C# Bm
Bm7 Ou voc me engana ou no est madura

Em Em/D A7/C# A7 (passagem 2)


Eu fico imaginando ns dois
D6(9) A7/C# B9 Bm Bm G/A D6(9) G/A
Eu fico ali sonhando acordado, jun - Onde est voc agora
B7(4) Bm
tan - do D6(9) A7/C#
Em Em/D A7/C# A7 Quando a gente gosta claro que a gente
O antes o agora e o depois A|-0-1-2-| G7M
cuida
Bm Em Em/D C
Fala que me ama s que da boca pra fora
D6(9) A7/C# Bm
Bm F#m7 G7M Ou voc me engana ou no est madura
Por que voc me deixa to solto? G
Bm F#m7 Bm/E (passagem 2)
Por que voc no cola em mim? G/A
Bm F#m7 G7M Onde est voc agora?
T me sentindo muito sozinho
TABS:
D6(9) A7/C# Bm
No sou nem quero ser o seu dono (1 parte do ritmo)
Em Em/D A7/C# A7
que um carinho s vezes cai bem
D6(9) A7/C# B9 Bm Bm
Eu tenho os meus desejos e planos se
B7(4) Bm
- cre - tos

D6(9) A7/C# B9 Bm B9 Bm Bm/E


e|-----5--------5---------------2-----------| e|------------------------------------------|
B|-----5--------5--------2---3----2--3------| B|-----7-----7-----7-----7-----7------------|
G|-----4--------0--------4---4----4--4---4-2| G|-----7-----7-----7-----7-----7------------|
D|-----------------------4---4----4--4---4-4| D|-----9-----9-----9-----9-----9------------|
A|-5------5-4------4---2----------2---------| A|------------------------------------------|
E|------------------------------------------| E|--0-----0-----0-----0-----0-----0---------|

Bm7 (refro)
e| D6(9) A7/C# G7M
B| e|-5-5---5-5-----2-0-------------------------
G| B|-5-5---5-5---3-3---3-----3-----------------
D| G|-4-4---0-0---4-4-----4---4-----------------
A| D|-------------4---------4-4-----------------
E| A|-5---5-4---4-------------------------------
E|-------------3-3-----3-----3---------------

(2 parte do ritmo) e||


Em Em/D A7/C# A7 B||
e|-----0--------0--------5--5--5------------| G||
B|-0---0--------0--------5--5--5------2--2--| D||
G|-0------------0--------0--0--0------0--0--| A||
D|-2------2-0------0------------------2--2--| E||
A|---------------------4---------0--0------0|
E|-0----------------------------------------| Em Em/D C
e|---0---0-----------0-0-----0---3-0---------
(variao da 1 parte do ritmo) B|-0-0---0-----------1--1------1-----1-------
B9 Bm B7(4) Bm G|-0-----0-----0-----0---0-------------0-----
e|-------------2-------2--------------------| D|-2---2-0---0-----0-2----2--------------2---
B|----2---3----3---5---3--------------------| A|---------2-----2---3-----3-----3-----3-----
G|----4---4----4---2---4--------------------| E|-0-----------------------------------------
D|----4---4--------4------------------------|
A|--2---------------------------------------| e||
E|------------------------------------------| B||
jun tan do G||
D||
(variao da 2 parte do ritmo) A||
A7/C# A7 Bm (2parte) E||
e|----5--5--5-------------------------------|
B|----5--5--5------2------------------------| D6(9) A7/C# Bm7 G G/A
G|----0--0--0------0------------------------| e|-5-5---5-5---------------------------------
D|-----------------2------------------------| B|-5-5---5-5---3-3-----------0-0---3-3-------
A|--4---------0--0----0-1-2-----------------| G|-4-4---0-0---4-4---4-2-----0-0---4-4-------
E|------------------------------------------| D|-------------4-4---4---4-2-0-0---5-5-------
A|-5---5-4---4-2---2---------------0---0-----
(passagem 1 - 2 parte) E|---------------------------3---3-----------
G7M
e|-----2-0-----------2-0--------------------| e||
B|-----3----3--------3---3------------------| B||
G|-----4------4------4-----4----------------| G||
D|--------------4------------4--------------| D||
A|------------------------------------------| A||
E|---3------3------3-----3------------------| E||

(passagem 2 - 2 parte)

D6(9) G/A
e|-5-5---------------------------------------
B|-5-5--------3---3--------------------------
G|-4-4--------4---4--------------------------
D|------------5---5--------------------------
A|-5---5--0-0-------0------------------------
E|-------------------------------------------
e||
B||
G||
D||
A||
E||

A7 A7/C# B7(4) B9 Bm Bm/E

1 2 1 1 2
2 3
2 3 3 4 3 4 4
3 4 4

Bm7 C D6(9) Em Em/D Em7(9)


1 5 1
2 1 1 2
3 3 1 2 3 4
4 3 2
4 3

F#m7 F7M G G/A G7M


1 2
1 2 3 4 3 4 1
2 3 1 1 2
2 3 4
3 4

Interesses relacionados