Você está na página 1de 2

Voc tudo que eu quero - Garotos da Rua

INTRO:(D A G A)

E|-10^---10---------------------------------------------------------------- 12---
B|----12-------10^---10-------------10-------------------10--10-12-10-10/12 --15-
G|----------------11--------9^----9-----9^-----9----9-11------------------- -----
D|----------------------------12-------------12--12------------------------ -----
A|------------------------------------------------------------------------- -----
E|------------------------------------------------------------------------- -----

E|---15-14-15-14-15/17-17^
B|-15---------------------
G|------------------------
D|------------------------
A|------------------------
E|------------------------

(D A G A)
No existem mais distancias
que possam me levar pra mais longe
voc d a partida
sua nave se perde no espao
no quero mais migalhas
voc s me abandona
me deixa esperando na linha
quando no me quer se evapora feito gs

G A
pra voc no passo de um brinquedo
G ; A
logo voc cansa e depois joga fora!

D G A4
Voce tudo que eu quero [2vezes]

(D A G A)
no consigo mais pensar
em coisas que at pouco eu sonhava
Se for pra ficar contigo
no importa se corro perigo
No entendo porque tanta pressa
nem porque viver desse geito
Como que voc quer que eu ande
se voc no me d cho pra pisar

G A
pra voc no passo de um brinquedo
G ; A
logo voc cansa e depois joga fora!

D G A4
Voce tudo que eu quero [2vezes]
(SOLO)

G A
pra voc no passo de um brinquedo
G ; A
logo voc cansa e depois joga fora!

D G A4
Voce tudo que eu quero [2vezes]

cifrado por: Matheus Gazola