Você está na página 1de 7

11/05/2016 CifraClub|AQUARELAToquinho(cifracomvideoaula)

Toquinho
Aquarela
Violo:Principal

Tom: C

Intro 2x: G G/B C C/D

Parte 1

G G/B
E|------------------------------------------|
B|-----------0------------0-----------------|
G|-0---0-2-0--------0-2-0-------------------|
D|---0------------0-------------------------|
A|--------------2---------------------------|
E|-3----------------------------------------|

Parte 2

C C/D
E|------------------------------------------|
B|------------0---1-0-----------------------|
G|-----0-2-0----0-----2---------------------|
D|---0--------0-----------------------------|
A|-3----------------------------------------|
E|------------------------------------------|

Primeira Parte:

G G/B
Numa folha qualquer
C C/D
Eu desenho um sol amarelo
G G/B
E com cinco ou seis retas
C C/D
fcil fazer um castelo
G G/B
Corro o lpis em torno da mo
C C/D
E me dou uma luva
G G/B
E se fao chover com dois riscos
C C/D
Tenho um guarda-chuva

Dedilhado Primeira Parte:

Primeira Parte:

Parte 1

https://www.cifraclub.com.br/toquinho/aquarela/ 1/7
11/05/2016 CifraClub|AQUARELAToquinho(cifracomvideoaula)

G G/B
E|------------------------------------------|
B|-------0--------------0-------------------|
G|-----0-0------------0-0-------------------|
D|---0-----0---0----0-----0---0-------------|
A|----------------2---------2---------------|
E|-3---------3------------------------------|

Parte 2

C C/D
E|----------------------0-------------------|
B|-------1------------1-1-------------------|
G|-----0-0----------0-----0---0-------------|
D|---2-----2---2--0---------0---------------|
A|-3---------3------------------------------|
E|------------------------------------------|

Pr-refro:

Em Em/D
Se um pinguinho de tinta
C F7M
Cai num pedacinho azul do papel
G G/B
Num instante imagino
C C/D
Uma linda gaivota a voar no cu

Dedilhado Pr-refro:

Parte 1

Em Em/D
E|-------0--------------0-------------------|
B|-----0-0------------0-0-------------------|
G|---0-----0---0----0-----0---0-------------|
D|-2---------2----0---------0---------------|
A|------------------------------------------|
E|------------------------------------------|

Parte 2

C F7M
E|-------0--------------0-------------------|
B|-----1-1------------1-1-------------------|
G|---0-----0---0----2-----2---2-------------|
D|----------------3---------3---------------|
A|-3---------0------------------------------|
E|------------------------------------------|

https://www.cifraclub.com.br/toquinho/aquarela/ 2/7
11/05/2016 CifraClub|AQUARELAToquinho(cifracomvideoaula)

Parte 3

G G/B
E|------------------------------------------|
B|-------0--------------0-------------------|
G|-----0-0------------0-0-------------------|
D|---0-----0---0----0-----0---0-------------|
A|----------------2---------2---------------|
E|-3---------3------------------------------|

Parte 4

C C/D
E|---------------------0-------------0------|
B|-------1-----------1-1-----------1-1------|
G|-----0-0---------0-----0---0---0-----0---0|
D|---2-----2---2-0---------0---0---------0--|
A|-3---------3------------------------------|
E|------------------------------------------|

Refro:

G D/F#
Vai voando, contornando
C/E C/D
A imensa curva norte-sul
G D/F#
Vou com ela viajando
C/E C/D
Hava, Pequim ou Istambul
G B7 Em
Pinto um barco a vela branco navegando
A7 C/D
tanto cu e mar num beijo azul

G D/F#
Entre as nuvens vem surgindo
C/E C/D
Um lindo avio rosa e gren
G D/F#
Tudo em volta colorindo
C/E C/D
Com suas luzes a piscar
G B7 Em
Basta imaginar e ele est partindo
A7
Sereno e lindo
C/D
E se a gente quiser ele vai pousar

Dedilhado Refro:

https://www.cifraclub.com.br/toquinho/aquarela/ 3/7
11/05/2016 CifraClub|AQUARELAToquinho(cifracomvideoaula)

Parte 1

G D/F#
E|------------------------------------------|
B|-------0--------------3-------------------|
G|-----0-0------------2-2-------------------|
D|---0-----0---0----0-----0---0-------------|
A|------------------------------------------|
E|-3---------3----2---------0---------------|

Parte 2

C/E C/D
E|----------------------0-------------------|
B|-------1------------1-1-------------------|
G|-----0-0----------0-----0---0-------------|
D|---2-----2---2--0---------0---------------|
A|------------------------------------------|
E|-0---------0------------------------------|

(repete Parte 1 e Parte 2)

Parte 3

G B7
E|------------------------------------------|
B|-------0--------------4-------------------|
G|-----0-0------------2-2-------------------|
D|---0-----0---0----4-----4---4-------------|
A|----------------2---------2---------------|
E|-3---------3------------------------------|

Parte 4

Em A7
E|------------------------------------------|
B|-------0--------------2-------------------|
G|-----0-0------------1-1-------------------|
D|---2-----2---2----2-----2---2-------------|
A|----------------0---------0---------------|
E|-0---------0------------------------------|

Parte 5

C/D
E|-------0--------0-------------------------|
B|-----1-0--------1-------------------------|

https://www.cifraclub.com.br/toquinho/aquarela/ 4/7
11/05/2016 CifraClub|AQUARELAToquinho(cifracomvideoaula)

G|---0-----0---0--0-------------------------|
D|-0---------0----0-------------------------|
A|------------------------------------------|
E|------------------------------------------|

Repete Intro: G G/B C C/D

Segunda Parte:

G G/B
Numa folha qualquer
C C/D
Eu desenho um navio de partida
G G/B
Com alguns bons amigos
C C/D
Bebendo de bem com a vida
G G/B
De uma Amrica a outra
C C/D
Consigo passar num segundo
G G/B
Giro um simples compasso
C C/D
E num crculo eu fao o mundo

Pr-refro:

Em Em/D
Um menino caminha
C F7M
E caminhando chega no muro
G G/B
E ali logo em frente
C
A esperar pela gente
C/D
O futuro est

Refro:

G D/F#
E o futuro uma astronave
C/E C/D
Que tentamos pilotar
G D/F#
No tem tempo nem piedade
C/E C/D
Nem tem hora de chegar
G B7 Em
Sem pedir licena muda nossa vida
A7 C/D
Depois convida a rir ou chorar

G D/F#
Nessa estrada no nos cabe

https://www.cifraclub.com.br/toquinho/aquarela/ 5/7
11/05/2016 CifraClub|AQUARELAToquinho(cifracomvideoaula)

C/E C/D
Conhecer ou ver o que vir
G D/F#
O fim dela ningum sabe
C/E C/D
Bem ao certo onde vai dar
G B7 Em
Vamos todos numa linda passarela
A7 C/D
De uma aquarela que um dia enfim

Descolorir

Final:

G G/B
Numa folha qualquer
C C/D
Eu desenho um sol amarelo

Que descolorir

G G/B
E com cinco ou seis retas
C C/D
fcil fazer um castelo

Que descolorir
G G/B
Giro um simples compasso
C C/D
E num crculo eu fao o mundo

Que descolorir

D/F# G Em/D A7 B7 C C/D C/E


1 1 1
1 2 2 3 2 2
3 2 3 3
3 4

F7M Em G/B
1
2 2 1
3

Composio:Toquinho/VinciusdeMoraes

Paraumaimpressodemelhorqualidade,utilizeolink"imprimir"nomenuesquerdadapgina.

https://www.cifraclub.com.br/toquinho/aquarela/ 6/7
11/05/2016 CifraClub|AQUARELAToquinho(cifracomvideoaula)

CifraClub
1.877.374curtidas

CurtirPgina Assistiraovdeo

Sejaoprimeirodeseusamigosacurtirisso.

acordes
D/F# G

https://www.cifraclub.com.br/toquinho/aquarela/ 7/7

Interesses relacionados