Você está na página 1de 4

01/01/2017

CifraClub­ZecaBaleiro­Telegrama

Composição:ZecaBaleiro

Tom: D

Primeira Parte – Estrofe 1:

Bm Eu tava triste, tristinho

Mais sem graça

A

Que a top-model magrela na passarela

Bm Eu tava só, sozinho

A

Mais solitário que um paulistano

Que um canastrão na hora que cai o pano

E desejar bom dia

Que um canastrão na hora que cai o pano E desejar bom dia De beijar o

De beijar o português da padaria

Bm11

Hoje eu acordei

Com uma vontade danada

De mandar flores ao delegado

A9

De bater na porta do vizinho

E desejar bom dia

Estrofe 2:

De beijar o português da padaria

Bm

Refrão:

Tava mais bobo que banda de rock

A

Que um palhaço do circo Vostok Bm Mas ontem eu recebi um telegrama

A

Bm11

Mama, oh mama, oh mama

A9

Quero ser seu

Era você de Aracaju ou do Alabama

Quero ser seu

Bm Dizendo: Nêgo, sinta-se feliz

Quero ser seu

G Porque no mundo tem alguém que diz

E

F#11

Que muito te ama

G F#11

Que tanto te ama

G

F#11

Que muito, muito te ama

G

F#11

Que tanto te ama

Segunda Parte:

Bm11

Por isso hoje eu acordei

Com uma vontade danada

De mandar flores ao delegado

A9

De bater na porta do vizinho

Quero ser seu papa

Bm11

Mama, oh mama, oh mama

A9

Quero ser seu

Quero ser seu

Quero ser seu

Quero ser seu papa

Primeira Parte – Estrofe 1:

Bm11

Eu tava triste, tristinho

Mais sem graça

01/01/2017

CifraClub­ZecaBaleiro­Telegrama

A9

Que a top-model magrela na passarela

Bm11

Eu tava só, sozinho

A9

Mais solitário que um paulistano

Que um vilão de filme mexicano

E desejar bom dia

De beijar o português da padaria

Interlúdio:

B5

A9

Me dê a mão vamos sair

Estrofe 2:

Pra ver o sol

Bm11

Refrão:

Tava mais bobo que banda de rock

A9

Que um palhaço do circo Vostok

Bm11

Mas ontem eu recebi um telegrama

A9

Era você de Aracaju ou do Alabama

Bm11

Dizendo: Nêgo, sinta-se feliz

G Porque no mundo tem alguém que diz

E

F#11

Que muito te ama

G F#11

Que tanto te ama

G

F#11

Bm11

Mama, oh mama, oh mama

A9

Quero ser seu

Quero ser seu

Quero ser seu

Quero ser seu papa

Bm11

Mama, oh mama, oh mama

A9

Quero ser seu

Que muito te ama G

F#11

Quero ser seu

Que tanto, tanto te ama

 

Quero ser seu

Segunda Parte:

Bm11

Por isso hoje eu acordei

Com uma vontade danada

De mandar flores ao delegado

A9

De bater na porta do vizinho

E desejar bom dia

De beijar o português da padaria

Bm11

Hoje eu acordei

Com uma vontade danada

De mandar flores ao delegado

A9

De bater na porta do vizinho

Quero ser seu papa

Segunda Parte:

Bm11

Por isso hoje eu acordei

Com uma vontade danada

De mandar flores ao delegado

A9

De bater na porta do vizinho

E desejar bom dia

De beijar o português da padaria

Bm11

Hoje eu acordei

Com uma vontade danada

De mandar flores ao delegado

01/01/2017

CifraClub­ZecaBaleiro­Telegrama

A9

De bater na porta do vizinho

E desejar bom dia

De beijar o português da padaria

Refrão:

Bm11

Mama, oh mama, oh mama

A9

Quero ser seu

Bm

A

e|-----2------2-------0------0--------------|

B|-----3------3-------2------2--------------|

G|-----4------4-------2------2--------------|

D|---4-4----4-4-----2-2----2-2--------------|

A|-2------2-------0------0------------------|

E|------------------------------------------| Primeira Parte - Segunda Estrofe:

Ritmo 1

A

e|-----0--x-x-x-x-x-x--x-x------------------|

Quero ser seu

B|-----2--x-x-x-x-x-x--x-x------------------|

G|-----2--x-x-x-x-x-x--x-x------------------|

Quero ser seu

D|---2-2--x-x-x-x-x-x--x-x------------------|

Quero ser seu papa

Bm11

Mama, oh mama, oh mama

A9

Quero ser seu

A|-0------x-x-x-x-x-x--x-x------------------|

E|--------x-x-x-x-x-x--x-x------------------|

Bm

e|-----2--x-x-x-x-x-x--x-x------------------|

B|-----3--x-x-x-x-x-x--x-x------------------|

G|-----4--x-x-x-x-x-x--x-x------------------|

D|---4-4--x-x-x-x-x-x--x-x------------------|

A|-2------x-x-x-x-x-x--x-x------------------|

Quero ser seu

E|--------x-x-x-x-x-x--x-x------------------|

Quero ser seu

Primeira Parte – Estrofe 1 (repetição):

Quero ser seu papa

Bm11

Mama, oh mama, oh mama

A9

Quero ser seu

Bm11

A9

e|---------0---------0---------0---------0--|

B|-------3---------3---------0---------0----|

G|-----4---------4---------2---------2------|

D|---4---------4---------2---------2--------|

A|-2---------2---------0---------0----------|

E|------------------------------------------|

Quero ser seu

Interlúdio:

Quero ser seu

B5

Quero ser seu papa

Bm11

Mama, oh mama, oh mama

A9

Quero ser seu

e|------------------------------------------|

B|-----0--------------------0---------------|

G|-------4-----4--------------4-----4-------|

D|---4-----2h4---4-2-0----4-----2h4---4-2-0-|

A|-2--------------------2-------------------|

E|------------------------------------------|

A9e|-----------------------------------------

B|-----0--------------------0---------------|

Quero ser seu

G|-------2-----2--------------2-----2-------|

D|---2-----------2-0------2-----------2-0---|

Quero ser seu

A|-0-------2h4-------4--0-------2h4-------4-|

Quero ser seu papa

(fade out pra terminar)

Primeira Parte – Estrofe 1:

E|------------------------------------------|

01/01/2017

CifraClub­ZecaBaleiro­Telegrama

A A9 B5 Bm Bm11 E 1 2 3 4 2 3 1 1 2
A
A9
B5
Bm
Bm11
E
1
2
3 4
2 3
1
1
2 3
2
2
3 4
3 4
3 4
F#11
G
1
2
1
3 4
2

3 4