Você está na página 1de 15

MINHAS CIFRAS E TABLATURA EXCLUSIVAS

Aqui estão todas as minhas ultimas cifras. Todas elas tiradas de ouvido por mim. Todos os dias desde 2008 o meu trabalho com a questão dos Instrumentos Músicas (E tudo que eu faço) é vítima do Cartel Rádio JBfm e MkPublicitá (Rádio 93fm e Rádio Melodia) porque eles são MUITO INVEJOSOS, E SÃO PLAGIADORES, então eles quando vêem uma pessoa com um trabalho todo criado originalmente, e com um talento que não vem dos livros ou deles ELES SE CORROEM DE INVEJA.

É um interesse imenso deles através dos debates, das músicas que eles tocam, e de tudo que rola entre

eles de provar que você é um plagiador deles ou de qualquer outra coisa. São verdadeiros animais mentirosos, e que vigiam pessoas 24h para montar qualquer fraude. Esses animais estão grudados no meu computador 24h procurando qualquer mentira para atribuir plágio ao meu trabalho, e sempre invocando Vodús ao presumirem qualquer pretexto para essas Fraudes, Plágios, e Calunias. São verdadeiros animais mentirosos e invejosos esses Jornalistas, Locutores, Pastores, Cantores, Atores, e todo esse lixo: São inisistente em caluniar os outros pra rebaixar os outros à incompentecia deles com várias mentiras montadas. Eu canso de mostrar pra vocês desde 2011.

Seja apoiador, porque esses CARTÉIS da Rede Globo (ETC) são movidos de muita inveja: ELES ROUBAM O QUE É SEU, PASSAM PRA ORGANIZAÇÕES CRIMINOSAS PERIGOSAS DE OUTROS PAÍSES PARA QUE VOCÊ SEJA INTIMIDADO À NÃO DENUNCIAR, OU SE DENUNCIAR ELES POSSAM TE SEQUESTRAR, TORTURAR, OU MATAR. E ENTÃO SAI NOTÍCIAS NO "JORNAL NACIONAL" DE ORGANIZAÇÕES CRIMINOSAS QUE REALIZAM FRAUDES E PLÁGIOS PRA DAR A IMPRESSÃO QUE O ESQUEMA NÃO É JUSTAMENTE DELES (19/12/2017 depois de eu colocar vários projetos de Filmes Chineses com Atores Chineses, e divulgar no twitter à empresas Chinesas).

Textos de Abril e Maio de 2011

Tudo Bem (Lulu Santos) Cifra por Jorge Rodrigues Tom: G (não original) Essa cifra é resultado de um estudo de 10 anos sem livros e sem professor algum. Março de 2011.

G7+ C7+

Já não tenho dedos pra contar G7+ C7+ De quantas janelas me atirei (G, D/F#) Em7 Bm7

E quantas pedras me lançaram e quantas atirei

Em7 Bm7 Tanta farpa, tanta mentira Em7 Bm7 Tanta falta do que dizer (Am7, G/B, C) C/D Nem sempre é “so easy” se viver

C D B

Mas o teu amor me cura (D/F#) Em7

De uma loucura qualquer

C

Encostar no teu peito

C/D G

E se isso for algum defeito por mim tudo bem

C7+

Tudo bem

G

Tudo bem

G7+ C7+ Hoje eu não consigo mais lembrar G7+ C7+ De quantos barrancos despenquei (G, D/F#) Em7 Bm7

E quanto rastro de incompreensão eu já deixei

Em7 Bm7 Tanto maus como bons momentos Em7 Bm7 Tantas vezes desilusão (Am, G/B, C) C/D Quase nunca a vida é um balão

Patrocine a publicação dos manuais de Violão, Guitarra e Contrabaixo, e Teclado de Jorge Rodrigues. Um trabalho completamente auto-didáta, sem bibliografia alguma e sem professores. Daniel 2, Gênesis 40, 41

Apenas mais uma de amor (Lulu Santos) Por Jorge Rodrigues

Você poderá tocar em dedilhado (observando corretamente o tempo das inversões de baixo podendo aplicar apenas uma nota de baixo no tempo) ou em batida (basta observar as inversões de baixo marcadas e perceber qual dos dois acordes é o que irá soar melhor, e notando que as dissonâncias podem não soar bem nas batidas)

G

Eu gosto tanto de você

G4

Que até prefiro esconder G(6) D/G Deixo assim ficar subentendido Am7 (G/B) C Como uma idéia que existe na cabeça e não Am7 C/D G Tem a menor obrigação de acontecer

G

Eu acho tão bonito isso

G4

De ser abstrato baby G(6) D/G

A beleza mesmo tão fulgaz

Am7 (G/B) C

É uma idéia que existe na cabeça e não

Am7 C/D G Tem a menor pretensão de acontecer

C(9) D

Pode até parecer fraqueza

G (F#m5+) Em7

Pois que seja fraqueza então Am7 (G/B) C

A

alegria que me dá

G

Isso vai sem eu dizer C(9) D

Se amanhã não for nada disso

G (F#m5+) Em7

Caberá só a mim esquecer Am7 (G/B) C

O que eu ganho e o que perco

C/D (D/C) G Ninguém precisa saber

Eu desenvolvi três manuais: violão, guitarra, contrabaixo (e teclado), um trabalho autodidáta de 9 anos sem livros, e sem professor, um trabalho feito com muita dedicação e organização, feito sem ajuda de ninguém senão somente de Deus, um trabalho muito invejado justamente por causa disso. Patrocine a publicação destes manuiais.

ABOVE ALL (VERSÃO EM PORTUGUES ALINE BARROS) Eu não conheço completamente a letra, mas a melodia da introdução e dos refrões é assim mesmo. POR: JORGE RODRIGUES

F C

Bem mais que o céu, bem mais que o mar

F G C

Bem mais que a terra e tudo que se fez Am Am7/G F (C/E) Bem mais que toda natureza Dm7 F/G Jesus tu é o principio e o fim

C F G C

Por amor, sua vida entregou, C/E F G C Meu Senhor, condenado foi

G/B Am7 Am7/G F Como a flor machucada no jardim (C/E) Dm7 Sofreu por mim (C/E) F F/G C

Pensou em mim

Me

amou

Essa foi a minha ultima cifra antes de eu ficar sem tocar violão desde maio de 2009 até fevereiro de 2011. Antes disso cifrando todas as musicas que eu costumava tocar, de ouvido como também gostava de fazer.

A cura (Lulu Santos) Cifra por Jorge Rodrigues Barroso (Tom: D não original)

D Bb Bm Em7

Existirá em todo porto, tremulará

D Bm7 A

a velha bandeira da vida

D Bb Bm Em7

Acenderá em todo farol se iluminará

D A D

uma ponta de esperança

D

Bb Bm Em

E

se virá será quando menos se esperar

D

Bm A

Daonde ninguém imagina

D Bb Bm Em

Demolirá toda certeza vã, não sobrará

D A D

pedra sobre pedra

Em7 Bm7 D A Enquanto isso não nos custa insistir na questão do desejo Em7 Bm7 D A Não deixar se extiguir Em G A Bm Desafianado de vez a noção

E G A

Na qual se crê que o inferno é aqui ô ô

D Bb Bm Em

Existira em toda casa então experimentará

D A D

Para todo mal a cura

D G A

IE IE IEE

G A

NARARAM Nararara

Trancado (Ana Carolina) Tom: E (Original F)

Cifra por Jorge Rodrigues

O acorde com nona no primeiro grau (E) é opcional.

E9 C#m7 Eu tranco a porta pra todas as mentiras

A9

E a verdade também está lá fora

F#m7 E9 Agora a porta está trancada

E C#m7

A porta fechada me lembra você a toda hora

A9

A hora me lembra o tempo que se perdeu

F#m7 E9

E perder é não ter a bussola

A, E, F#m7, A

É

não ter aquilo que era seu

B

E9

E

o que você quer?

Orientação

E9 C#m7

Eu tranco a porta pra todos os gritos

A9

E o silêncio também está lá fora

F#m7 E9 Agora a porta está trancada

E9

Eu pulo a janela

C#m7

Será que eu tô trancado aqui dentro

A

Será que você tá trancado lá fora F#m E Será que eu ainda te desoriento A, E, F#m7 Será que as perguntas são certas

A

Então eu me tranco em você

B

F# B

E

deixo as portaaaaaaas abertaaaaaas

(final)

E9

Eu pulo a janela

C#m7

Será que eu tô trancado aqui dentro

A9

Será que você tá trancado lá fora F#m7 E Será que eu ainda te desoriento A, E, F#m7

Será que as perguntas são certas

A

Então eu me tranco em você B4 E9

E deixo as portas abertas

As quatro estações (Sandy e Junior) Cifra por Jorge Rodrigues Tom: G

Por enquanto eu indico a musica para o dedilhado. Essa musica não é fácil de tocar, porque completa para tocar no violão, possuindo espaços vagos e cores de outros instrumentos. Os acordes entre parênteses são Acordes que vão funcionar como passagem ou Arpejo preenchendo espaços ou completando, e nos dedilhados ocupararão somente uma nota. Identifique qual é a Nota e a faça como um contraponto. Se você quizer, pode tirá-los observando somente as cifras for a dos parênteses e recorer à sua simplicidade, ou usar outros efeitos, mas você vai notar que eles preenchem a música. Eu optei pela complexidade para dar alternativas.

G (D/F#)

A noite cai o frio desce

Em7 (D/G) C (G/B)

Mas aqui dentro predomina esse amor que me aquece

C/D

protege da solidão

G (D/F#)

A noite cai a chuva trás

Em7 (D/G) C (G/B)

O medo e a aflição, mas é o amor que está aqui dentro

C/D

Que acalma meu coração

C (G/D)

Passa o inverno chega o verão G/B (Em7)

O calor aquece a minha emoção

Am7

Pelo clima da estação (G/B) C C/D Mais pelo fogo dessa paixão

C (G/D)

Na primavera calmaria G/B (Em7)

Traquilidade o mar que leva

Am7

Queria sempre essa alegria (G/B) C C/D Viver sonhando! Quem me dera?

G

Outono é sempre igual (Em7) D/F# (Em7)

As folhas caem no quintal

C (G/B) Am7 C/D

Só não cai o meu amor pois não tem jeito é imortal

G

Outono é sempre igual (Em7) D/F# (Em7)

As folhas caem no quintal

C (G/B) Am7 C/D G

Só não cai o meu amor pois não tem jeito não

é imortal

Essas cifras são resultado de 10 anos de estudos autodidatás sem livros e sem professor. Patrocine a publicação dos meus manuais autodidatas de violão, guitarra e contrabaixo. Um trabalho sem nenhuma bibliografia, e sem fundamento em nenhuma fonte externa, uma trabalho de iniciante para iniciate.

TABLATURAS

EU VOU ÁFRICA (Primeira parte) (Fernanda Brum)

Todas essas tablaturas deste blog foram escritas e descobertas por Jorge Rodrigues, sem nenhum professor, sem livros, sem DVD, sem vídeo-aula, sem CD, sem revista, sem imagem ou qualquer outra porcaria de material imundo evangélico. Qualquer dúvida é só postar um comentário, pois no momento eu não estou com guitarra e escrevi essa tablatura quando minha guitarra não estava funcionando, após 10 meses sem poder tocá-la. Por isso pode conter alguns erros. E também não sei cantar e tocar mesmo tempo, ainda não tive a oportunidade de treinar bastante isso.

D9

-----0----10----------------------------------

-----3---------------3-------------------------

-----2-----------2-------------------------

-----0------------------0--------------------

----------------------------------------------

------------------------------------------------

D9 G

Alguém da Asia me disse vem me ajudar, posso ouvir a Àfrica pedir por socorro

------0--------------3----------------------0------------------3-------

---------3-------------3-----------------------3-----------------3-----

---2---------------------0--------------2---------------------------0--

-------------------------------------------------------------------------

-------------------------------------------------------------------------

-------------------------------------------------------------------------

Bm G Bm G

Ruanda, Somalia, Nigéria, clamando por um pouco de amor

----------------------------------------------------

----------------------------------------------------

---------------------------------------------------

--------------------------------------------------

--2----------------2---------2-5----------------

----------3------------------------3-------------

Bm G A Vou fazer tudo que eu posso fazer eu vou

----------------0--0---------------------------

----------------2----2-----------------------------

----------------2------2-------------------------

---------------------------------------------------

--2------------------------------------------------

---------3-----------------------------------

Em A Em (D9) Tenho muito pra dar, eu vou. O evangelho pregar

---0-0-----------0--0---------0--0-----------------------------------

---0---0---------2----2-------0----0-------------------------------

---0-------------2------2------0-------------------------------------

------------------------------------------------------------------0---

---------------------------------------------------------------0-----

-------------------------------------------------------------0-------

TODOS OS SOLOS QUE EU CHEGUEI A TIRAR TODOS DE OUVIDO (TEXTO DE 2008)

Enquanto eu edito invocam aquele "Vodú do Plágio e da Calunia de Plágio" no meu olho.

REPERTÓRIO

VIOLÃO (solos)

PRECISO DE TI (Diante do Trono)

VEM ME CONSOLAR (Fernanda Brum) FOI MEU SEGUNDO SOLO SÓ DE NOTAS.

"

ESPÍRITO SANTO (Fernanda Brum) LOUVE AO CORDEIRO (Fernanda Brum) ROCKY MINHA BENÇÃO (CASSIANE) ESSE TAMBÉM FOI LEGAL VASO DE ALABASTRO (TAMBÉM IMPRESSIONOU QUEM OUVIU) Beat it (Michael Jackson)

TUA

ALMA, CANSADA

"

(Fernanda Brum)

GUITARRA

EU SEI TRÊS DO JIMMY HENDRIZ, FOI NELE QUE EU TIREI DUVIDAS PROFETA ADORADOR (MARQUINHOS E LILIAN) ANJOS (Fernanda Brum) SACIA-ME (MINST. APASC.) UNICO SENHOR (ALDA CÉLIA) VITÓRIA DA CRUZ (DIANTE DO TRONO) TUDO É TEU (ALINE BARROS) DE OUVIDO QUE DAREI A TI (Liz Lane) SANTO NOME (Carlinhos Félix) DE OUVIDO REINAR EM MIM (Carlinhos Félix) DE OUVIDO DIRTY DIANA (MICHAEL JACKSON) VAMOS CELEBRAR (PAMELA) Beat it (Michael Jackson) THE POLICE (MESSAGE IN THE BOTHE) LED ZEPELIN 1 LED ZEPELIN 2 (DE OUVIDO EU DESCOBRI) EU VOU (FERNANDA BRUM) DE OUVIDO (ARREBENTEI TAMBÉM) VOU VENCER (ANDRE VALADÃO) CLAMA A MIM

VASO DE ALABASTRO - Fernanda Brum TOM: D

Eu cifrei a música toda de ouvido.

PARTE 1

D D/F# G D (4 T)

D/F# Bm G Em A

D

(D/F#) Bm Em (G) A

D

(D/F#) Bm G

D5 A/G D

E E/G#(5 T) A E

G#m5+ C#m A (E/G#) F#m B4

E

E/G# C#m A F#m B

E

E/G# C#m A

E

B E

DEUS VAI NA FRENTE (Melow Suite) TOM: G

G C D G

(D/F#) Em7 C D G

G C9 Am7/4 Bm7

Em7 C Am7/4 G

Em7 (G/D) C (G/B) Am7 G/B D

Em7 (G/D) C (G/B) Am7 G/B C D G

MEU MESTRE (Lázaro) Tom: A

A/E A A/C#

E E/B

(E) Bm (A/C#) D A

DEUS FORTE (Kleber Lucas)

G

D Em D C

G

D Em C G D C

G

D Em C

G

D Em

C

D

Am C D

G

(D) Em (D) C Am D

G

(D) Em (D) C D G

DEUS FARÁ (Ouça e tome posse) LUDMILA FERBER (CD Adoração profética 1)

Tom: G (com caída para Tom: A) (Talvez não esteja no Tom original)

Em

Ouça e tome posse da palavra do Deus vivo ele está aqui

C

G

Em

D

C

Em

D

C

(D)

Assim diz o Senhor, Assim diz o Senhor

G Em C

D

G Em

C

D

Abrirei rios no deserto romprerei fontes no meio dos vales

Em

D

C

G

C

E

a terra seca se tranformará em mananciais

C

D

C

C/D

de águas viiiivaaas

G Em

passarás firme pelas águas, passarás firme no meio do fogo

C

D

G

Em

C

D

G Em

C

D

passarás firme no meio do fogo

Em D

C

nem as águas poderão te destruir

G C

nem mesmo fogo te afligiiiiiiir

D C (E) (preparação p/ caída de Tom)

A (E/G#) F#m7 (A/E) D

Deus fará

tudo

por

E4

você

A (E/G#)

F#m7 (A/E) D

E4

moverá

céus

e terras

com

seu poder

 

F#m

E

D

e o impossível vai acontecer

A

D

A/B E

A

vitória e honra ele trará

sobre você

ASSIM DIZ O SENHOR

DEUS

FARÁ (Ludimila ferber)

Em C G Em D C (D) 2x (D E D)

G Em C D 2x

Em D C G C D C C/D

G Em C D 2x

Em D C G C D C (E)

F#m E D

A D A/B E A

Deus de Promessas (Ministério Toque no Altar/CD Deus de Promessas) Tom: C

F

G9

Sei que os teus olhos

C G/B

F

(C/E)

Sempre atentos permanecem em mim

Dm7

G9

C

G/B

F

E os teus ouvidos são sensíveis para ouvir meu clamor

(C/E) Dm7

G

Posso a

choraaar

C

G/B

F

Mas a alegria vem de manhã

Dm

Dm

C

F

Am

G

és Deus de perto e não de longe F Nunca mudaste G Tú és fiel
és Deus de perto e não de longe F Nunca mudaste G Tú és fiel

és Deus de perto e não de longe F Nunca mudaste G Tú és fiel

és Deus de perto e não de longe F Nunca mudaste G Tú és fiel
és Deus de perto e não de longe F Nunca mudaste G Tú és fiel

C G/B

Am7

Deus de aliança Deus de pro

C/G

F

Dm7

F/G

messas

Deus que não é homem pra mentir

C G/B Am7

Tudo pode passar tudo po

C/G F

de mudar

Mas tua palavra vai se cumprir

BANQUETE (Comunidade da zona Sul)

Am F C G Dm (C/E) F C G (2X) Dm C (G/B) Dm C G (G4)

C G Dm Am

SOU DEUS QUE DÁ VITORIA (DIANTE DO TRONO 4) (Incompleta)

A

A/C# D/F# D Bm D A/E

A

A/C# D A A/C# Bm E A

D

Bm

G A

D

Bm

G

D A

Bm Em G D

ESPIRITO SANTO

G C (C/B) Am7 D G (2x)

(Am G/B) C D C D

EU TINHA MAIS DE CEM FEITAS NO COMPUTADOR. EU AS VEZES ESCREVEO A CIFRA, AS NOTAS NUM PAPEL, MAS EU GUARDO AS SEQUENCIA NA MAIORIA MEMORIA, EU NÃO FAÇO MUITAS CIFRAS, MAS EU SOU ESPECIALISTA NISSO E GOSTO DE FAZER, MAS SÓ SE ALGUÉM PEDIR ou se eu precisar.

Eu não preciso escrever a letra e colocar as cifras em cima, mas por dedução eu coloco só as cifras e deduzo o momento em que entram as cifras. (Invocaram o Vodú da mentira e calúnia no meu olho)

CRY - YUKI KURODA, ASKA (Tablatura, Janeiro de 2018)

Eu toquei a música toda em E fechado. Mas o tom original é C.

Existem várias partes na música, mas aqui eu vou dividir e apresentar só 3 partes. E há outras coisas na música que estão fora do tom, e que eu não apresento nesta tablatura. Com isso aqui você pode tocar o que é importante na música.

- SOLO INICIAL

- PRIMEIRA PARTE

- REFRÃO

- SOLO FINAL (IDEN)

Solo inicial e final

---------------------------------------------------------------------------------------------

------------------------12-10-9------10-9-----------------------------------------------

------8-9-------8-9--------------11--------9---------------------------------------------

------------11------------------------------------------------------------------------------

---------------------------------------------------------------------------------------------

---------------------------------------------------------------------------------------------

-------------------------------------------------------------------------------------

------------------------12-10-9---------------------------------------------------

------8-9-------8-9--------------11-8-9-11-8----------------------------------

------------11-------------------------------------11-----------------------------

-------------------------------------------------------------------------------------

-------------------------------------------------------------------------------------

Primeira parte do arranjo Todos esses arranjos abaixo vão ocorrer durante a primeira parte.

É

preciso seguir o rítimo para mover as duas notas de cima do acorde. Não dá pra desenhar o som, mas

o

esquema é esse.

------------------------------------------------------------------

------------------------------------------------------------------

-------------------(9)--------------------------------------------

--------------------9---------9----------------------------------

--------------------9------9-------------------------------------

------------------------------------------------------------------

Solos dentro da primeira parte do Arrnajo

Esses solos curtos abaixo acontecem de várias formas, mas são sempre essas notas. E aqui não está em ordem precisa. Essas notas e movimentos vão aparecer de diferentes maneiras, mas o esquema é o mesmo.

E B E (Uma finalização) E (E um pequeno solo)

-----------------------------------------------------------------

-----------------------------------------------------------------

------9-9-8-9--------------------------9-9-8-6-4------------

-----------------------------------------------------------------

-----------------------------------------------------------------

------------------------------------------------------------------

(Um finalização, e solo)

(Pequeno efeito)

------------------------------------------------------------------

------------------------------------------------------------------

-----9-8-9--9-9-8-6-4----------9-8-9-9---------------------

------------------------------------------------------------------

------------------------------------------------------------------

------------------------------------------------------------------

(O importante é notar quantas notas entram e o rítimo e tempo certo)

------------------------------------------------------------------

------------------------------------------------------------------

------9-9-8-9-9-9-9-(iden)-8-6-4---------------------------

------------------------------------------------------------------

------------------------------------------------------------------

------------------------------------------------------------------

Refrão (São batidas seguindo o rítmo original e o tempo correto. Pra tocar em C basta identificar onde estão os Acordes na posição correta. Você deve de preferência fazer os Acordes mudando a posição pelo braço

horizontalmente. O importante é identificar a maneira correta de tocar os acordes pelo ouvido)

A

E

G#m

C#m

--------------------------------------------------------------

------2------9----4-------9---------------------------------

------2------9----4-------9---------------------------------

------2------9----6-------11-------------------------------

--------------------------------------------------------------

--------------------------------------------------------------

A

E

B

--------------------------------------------------------------

------2------9-----4----------------------------------------

------2------9-----4----------------------------------------

------2------9-----4----------------------------------------

--------------------------------------------------------------

--------------------------------------------------------------